ISO-10303-21;
HEADER;
/* Generated by software containing ST-Developer
 * from STEP Tools, Inc. (www.steptools.com) 
 */
/* OPTION: using custom schema-name function */

FILE_DESCRIPTION(
/* description */ (''),
/* implementation_level */ '2;1');

FILE_NAME(
/* name */ 'TOOL.STP',
/* time_stamp */ '2023-03-20T04:37:35+01:00',
/* author */ (''),
/* organization */ ('SMS'),
/* preprocessor_version */ 'ST-DEVELOPER v16.7',
/* originating_system */ 'SIEMENS PLM Software NX 12.0',
/* authorisation */ '');

FILE_SCHEMA (('AUTOMOTIVE_DESIGN { 1 0 10303 214 3 1 1 1 }'));
ENDSEC;

DATA;
#10=CONSTRUCTIVE_GEOMETRY_REPRESENTATION_RELATIONSHIP(
'supplemental geometry','',#26,#11);
#11=CONSTRUCTIVE_GEOMETRY_REPRESENTATION('supplemental geometry',(#297,
#298,#299),#503);
#12=GEOMETRICALLY_BOUNDED_WIREFRAME_SHAPE_REPRESENTATION('Tool-None',(#27),
#503);
#13=SHAPE_REPRESENTATION_RELATIONSHIP('None',
'relationship between Tool-None and Tool-None',#26,#15);
#14=SHAPE_REPRESENTATION_RELATIONSHIP('None',
'relationship between Tool-None and Tool-None',#26,#12);
#15=ADVANCED_BREP_SHAPE_REPRESENTATION('Tool-None',(#38,#39),#503);
#16=SHAPE_DEFINITION_REPRESENTATION(#17,#26);
#17=PRODUCT_DEFINITION_SHAPE('','',#18);
#18=PRODUCT_DEFINITION(' ','',#20,#19);
#19=PRODUCT_DEFINITION_CONTEXT('part definition',#25,'design');
#20=PRODUCT_DEFINITION_FORMATION_WITH_SPECIFIED_SOURCE(' ',' ',#22,
 .NOT_KNOWN.);
#21=PRODUCT_RELATED_PRODUCT_CATEGORY('part','',(#22));
#22=PRODUCT('Tool','Tool',' ',(#23));
#23=PRODUCT_CONTEXT(' ',#25,'mechanical');
#24=APPLICATION_PROTOCOL_DEFINITION('international standard',
'automotive_design',2010,#25);
#25=APPLICATION_CONTEXT(
'core data for automotive mechanical design processes');
#26=SHAPE_REPRESENTATION('Tool-None',(#296),#503);
#27=GEOMETRIC_CURVE_SET('None',(#413,#414,#415,#263));
#28=SURFACE_STYLE_USAGE(.BOTH.,#30);
#29=SURFACE_STYLE_USAGE(.BOTH.,#31);
#30=SURFACE_SIDE_STYLE('',(#32));
#31=SURFACE_SIDE_STYLE('',(#33));
#32=SURFACE_STYLE_FILL_AREA(#34);
#33=SURFACE_STYLE_FILL_AREA(#35);
#34=FILL_AREA_STYLE('',(#36));
#35=FILL_AREA_STYLE('',(#37));
#36=FILL_AREA_STYLE_COLOUR('',#294);
#37=FILL_AREA_STYLE_COLOUR('',#295);
#38=MANIFOLD_SOLID_BREP('NOCUT',#40);
#39=MANIFOLD_SOLID_BREP('CUT',#41);
#40=CLOSED_SHELL('',(#73,#74,#75,#76,#77,#78,#79,#80,#81,#82,#83,#84,#85,
#86));
#41=CLOSED_SHELL('',(#87,#88,#89,#90));
#42=TOROIDAL_SURFACE('',#317,13.,1.);
#43=TOROIDAL_SURFACE('',#318,13.,1.);
#44=TOROIDAL_SURFACE('',#331,9.50000000000001,3.);
#45=CONICAL_SURFACE('',#308,11.5,45.0000000000001);
#46=CONICAL_SURFACE('',#310,12.,30.0000000000001);
#47=CONICAL_SURFACE('',#313,12.5,29.9999999999998);
#48=B_SPLINE_CURVE_WITH_KNOTS('',3,(#459,#460,#461,#462),.UNSPECIFIED.,
 .F.,.F.,(4,4),(0.,1.),.UNSPECIFIED.);
#49=B_SPLINE_CURVE_WITH_KNOTS('',3,(#463,#464,#465,#466),.UNSPECIFIED.,
 .F.,.F.,(4,4),(0.,1.),.UNSPECIFIED.);
#50=CYLINDRICAL_SURFACE('',#307,12.5);
#51=CYLINDRICAL_SURFACE('',#316,12.);
#52=CYLINDRICAL_SURFACE('',#330,12.5);
#53=FACE_BOUND('',#111,.T.);
#54=FACE_BOUND('',#112,.T.);
#55=FACE_BOUND('',#113,.T.);
#56=FACE_BOUND('',#115,.T.);
#57=FACE_BOUND('',#116,.T.);
#58=FACE_BOUND('',#117,.T.);
#59=FACE_BOUND('',#118,.T.);
#60=FACE_BOUND('',#119,.T.);
#61=FACE_BOUND('',#120,.T.);
#62=FACE_BOUND('',#121,.T.);
#63=FACE_BOUND('',#122,.T.);
#64=FACE_BOUND('',#123,.T.);
#65=FACE_BOUND('',#124,.T.);
#66=FACE_BOUND('',#133,.T.);
#67=FACE_BOUND('',#134,.T.);
#68=FACE_BOUND('',#135,.T.);
#69=FACE_BOUND('',#136,.T.);
#70=ELLIPSE('',#302,17.6776695296637,12.5);
#71=ELLIPSE('',#303,17.6776695296637,12.5);
#72=ELLIPSE('',#305,17.6776695296637,12.5);
#73=ADVANCED_FACE('',(#100),#91,.F.);
#74=ADVANCED_FACE('',(#53,#54,#55),#50,.T.);
#75=ADVANCED_FACE('',(#101),#45,.T.);
#76=ADVANCED_FACE('',(#56,#57),#46,.T.);
#77=ADVANCED_FACE('',(#58,#59),#47,.T.);
#78=ADVANCED_FACE('',(#60,#61),#51,.T.);
#79=ADVANCED_FACE('',(#62,#63),#42,.F.);
#80=ADVANCED_FACE('',(#64,#65),#43,.F.);
#81=ADVANCED_FACE('',(#102),#92,.T.);
#82=ADVANCED_FACE('',(#103),#93,.T.);
#83=ADVANCED_FACE('',(#104),#94,.T.);
#84=ADVANCED_FACE('',(#105),#95,.T.);
#85=ADVANCED_FACE('',(#106),#96,.T.);
#86=ADVANCED_FACE('',(#107),#97,.T.);
#87=ADVANCED_FACE('',(#108),#98,.T.);
#88=ADVANCED_FACE('',(#109),#99,.F.);
#89=ADVANCED_FACE('',(#66,#67),#52,.T.);
#90=ADVANCED_FACE('',(#68,#69),#44,.T.);
#91=PLANE('',#301);
#92=PLANE('',#319);
#93=PLANE('',#320);
#94=PLANE('',#321);
#95=PLANE('',#322);
#96=PLANE('',#323);
#97=PLANE('',#324);
#98=PLANE('',#326);
#99=PLANE('',#328);
#100=FACE_OUTER_BOUND('',#110,.T.);
#101=FACE_OUTER_BOUND('',#114,.T.);
#102=FACE_OUTER_BOUND('',#125,.T.);
#103=FACE_OUTER_BOUND('',#126,.T.);
#104=FACE_OUTER_BOUND('',#127,.T.);
#105=FACE_OUTER_BOUND('',#128,.T.);
#106=FACE_OUTER_BOUND('',#129,.T.);
#107=FACE_OUTER_BOUND('',#130,.T.);
#108=FACE_OUTER_BOUND('',#131,.T.);
#109=FACE_OUTER_BOUND('',#132,.T.);
#110=EDGE_LOOP('',(#148,#149));
#111=EDGE_LOOP('',(#150,#151,#152,#153));
#112=EDGE_LOOP('',(#154));
#113=EDGE_LOOP('',(#155,#156,#157,#158));
#114=EDGE_LOOP('',(#159,#160,#161,#162));
#115=EDGE_LOOP('',(#163));
#116=EDGE_LOOP('',(#164));
#117=EDGE_LOOP('',(#165));
#118=EDGE_LOOP('',(#166));
#119=EDGE_LOOP('',(#167));
#120=EDGE_LOOP('',(#168));
#121=EDGE_LOOP('',(#169));
#122=EDGE_LOOP('',(#170));
#123=EDGE_LOOP('',(#171));
#124=EDGE_LOOP('',(#172));
#125=EDGE_LOOP('',(#173,#174,#175,#176,#177,#178));
#126=EDGE_LOOP('',(#179,#180));
#127=EDGE_LOOP('',(#181,#182));
#128=EDGE_LOOP('',(#183,#184,#185,#186));
#129=EDGE_LOOP('',(#187,#188));
#130=EDGE_LOOP('',(#189));
#131=EDGE_LOOP('',(#190));
#132=EDGE_LOOP('',(#191));
#133=EDGE_LOOP('',(#192));
#134=EDGE_LOOP('',(#193));
#135=EDGE_LOOP('',(#194));
#136=EDGE_LOOP('',(#195));
#137=CIRCLE('',#300,11.5);
#138=CIRCLE('',#304,12.5);
#139=CIRCLE('',#306,12.5);
#140=CIRCLE('',#309,12.1339745962156);
#141=CIRCLE('',#311,12.1339745962156);
#142=CIRCLE('',#312,12.5);
#143=CIRCLE('',#314,12.);
#144=CIRCLE('',#315,12.);
#145=CIRCLE('',#325,12.5);
#146=CIRCLE('',#327,9.50000000000001);
#147=CIRCLE('',#329,12.5);
#148=ORIENTED_EDGE('',*,*,#215,.F.);
#149=ORIENTED_EDGE('',*,*,#216,.T.);
#150=ORIENTED_EDGE('',*,*,#217,.F.);
#151=ORIENTED_EDGE('',*,*,#218,.F.);
#152=ORIENTED_EDGE('',*,*,#219,.F.);
#153=ORIENTED_EDGE('',*,*,#220,.F.);
#154=ORIENTED_EDGE('',*,*,#221,.T.);
#155=ORIENTED_EDGE('',*,*,#222,.F.);
#156=ORIENTED_EDGE('',*,*,#223,.F.);
#157=ORIENTED_EDGE('',*,*,#224,.F.);
#158=ORIENTED_EDGE('',*,*,#225,.T.);
#159=ORIENTED_EDGE('',*,*,#225,.F.);
#160=ORIENTED_EDGE('',*,*,#226,.T.);
#161=ORIENTED_EDGE('',*,*,#216,.F.);
#162=ORIENTED_EDGE('',*,*,#227,.T.);
#163=ORIENTED_EDGE('',*,*,#228,.T.);
#164=ORIENTED_EDGE('',*,*,#221,.F.);
#165=ORIENTED_EDGE('',*,*,#229,.T.);
#166=ORIENTED_EDGE('',*,*,#230,.F.);
#167=ORIENTED_EDGE('',*,*,#231,.T.);
#168=ORIENTED_EDGE('',*,*,#232,.T.);
#169=ORIENTED_EDGE('',*,*,#232,.F.);
#170=ORIENTED_EDGE('',*,*,#228,.F.);
#171=ORIENTED_EDGE('',*,*,#229,.F.);
#172=ORIENTED_EDGE('',*,*,#231,.F.);
#173=ORIENTED_EDGE('',*,*,#224,.T.);
#174=ORIENTED_EDGE('',*,*,#233,.F.);
#175=ORIENTED_EDGE('',*,*,#222,.T.);
#176=ORIENTED_EDGE('',*,*,#227,.F.);
#177=ORIENTED_EDGE('',*,*,#215,.T.);
#178=ORIENTED_EDGE('',*,*,#226,.F.);
#179=ORIENTED_EDGE('',*,*,#223,.T.);
#180=ORIENTED_EDGE('',*,*,#233,.T.);
#181=ORIENTED_EDGE('',*,*,#217,.T.);
#182=ORIENTED_EDGE('',*,*,#234,.F.);
#183=ORIENTED_EDGE('',*,*,#218,.T.);
#184=ORIENTED_EDGE('',*,*,#234,.T.);
#185=ORIENTED_EDGE('',*,*,#220,.T.);
#186=ORIENTED_EDGE('',*,*,#235,.F.);
#187=ORIENTED_EDGE('',*,*,#219,.T.);
#188=ORIENTED_EDGE('',*,*,#235,.T.);
#189=ORIENTED_EDGE('',*,*,#230,.T.);
#190=ORIENTED_EDGE('',*,*,#236,.T.);
#191=ORIENTED_EDGE('',*,*,#237,.T.);
#192=ORIENTED_EDGE('',*,*,#238,.T.);
#193=ORIENTED_EDGE('',*,*,#236,.F.);
#194=ORIENTED_EDGE('',*,*,#237,.F.);
#195=ORIENTED_EDGE('',*,*,#238,.F.);
#196=VERTEX_POINT('',#436);
#197=VERTEX_POINT('',#437);
#198=VERTEX_POINT('',#441);
#199=VERTEX_POINT('',#442);
#200=VERTEX_POINT('',#444);
#201=VERTEX_POINT('',#446);
#202=VERTEX_POINT('',#449);
#203=VERTEX_POINT('',#451);
#204=VERTEX_POINT('',#452);
#205=VERTEX_POINT('',#454);
#206=VERTEX_POINT('',#456);
#207=VERTEX_POINT('',#469);
#208=VERTEX_POINT('',#472);
#209=VERTEX_POINT('',#474);
#210=VERTEX_POINT('',#477);
#211=VERTEX_POINT('',#479);
#212=VERTEX_POINT('',#493);
#213=VERTEX_POINT('',#496);
#214=VERTEX_POINT('',#499);
#215=EDGE_CURVE('',#196,#197,#239,.T.);
#216=EDGE_CURVE('',#196,#197,#137,.T.);
#217=EDGE_CURVE('',#198,#199,#70,.T.);
#218=EDGE_CURVE('',#200,#198,#240,.T.);
#219=EDGE_CURVE('',#201,#200,#71,.T.);
#220=EDGE_CURVE('',#199,#201,#241,.T.);
#221=EDGE_CURVE('',#202,#202,#138,.T.);
#222=EDGE_CURVE('',#203,#204,#242,.T.);
#223=EDGE_CURVE('',#205,#203,#72,.T.);
#224=EDGE_CURVE('',#206,#205,#243,.T.);
#225=EDGE_CURVE('',#206,#204,#139,.T.);
#226=EDGE_CURVE('',#206,#197,#48,.T.);
#227=EDGE_CURVE('',#196,#204,#49,.T.);
#228=EDGE_CURVE('',#207,#207,#140,.T.);
#229=EDGE_CURVE('',#208,#208,#141,.T.);
#230=EDGE_CURVE('',#209,#209,#142,.T.);
#231=EDGE_CURVE('',#210,#210,#143,.T.);
#232=EDGE_CURVE('',#211,#211,#144,.T.);
#233=EDGE_CURVE('',#203,#205,#244,.T.);
#234=EDGE_CURVE('',#198,#199,#245,.T.);
#235=EDGE_CURVE('',#200,#201,#246,.T.);
#236=EDGE_CURVE('',#212,#212,#145,.T.);
#237=EDGE_CURVE('',#213,#213,#146,.T.);
#238=EDGE_CURVE('',#214,#214,#147,.T.);
#239=LINE('',#435,#247);
#240=LINE('',#443,#248);
#241=LINE('',#447,#249);
#242=LINE('',#450,#250);
#243=LINE('',#455,#251);
#244=LINE('',#483,#252);
#245=LINE('',#486,#253);
#246=LINE('',#488,#254);
#247=VECTOR('',#340,1.);
#248=VECTOR('',#347,1.);
#249=VECTOR('',#350,1.);
#250=VECTOR('',#353,1.);
#251=VECTOR('',#356,1.);
#252=VECTOR('',#383,1.);
#253=VECTOR('',#388,1.);
#254=VECTOR('',#391,1.);
#255=CURVE_STYLE('',#259,POSITIVE_LENGTH_MEASURE(0.18),#266);
#256=CURVE_STYLE('',#260,POSITIVE_LENGTH_MEASURE(0.13),#293);
#257=CURVE_STYLE('',#261,POSITIVE_LENGTH_MEASURE(0.18),#292);
#258=CURVE_STYLE('',#262,POSITIVE_LENGTH_MEASURE(0.18),#292);
#259=DRAUGHTING_PRE_DEFINED_CURVE_FONT('continuous');
#260=DRAUGHTING_PRE_DEFINED_CURVE_FONT('continuous');
#261=DRAUGHTING_PRE_DEFINED_CURVE_FONT('continuous');
#262=DRAUGHTING_PRE_DEFINED_CURVE_FONT('continuous');
#263=TRIMMED_CURVE('CUTTING PART LINE',#264,(PARAMETER_VALUE(0.)),(
PARAMETER_VALUE(1.)),.T.,.PARAMETER.);
#264=(
BOUNDED_CURVE()
B_SPLINE_CURVE(3,(#416,#417,#418,#419,#420,#421,#422,#423,#424,#425,#426,
#427,#428,#429,#430,#431),.UNSPECIFIED.,.T.,.F.)
B_SPLINE_CURVE_WITH_KNOTS((1,3,3,3,3,3,3,1),(-0.0380914880000451,0.,0.379913445915949,
0.480954255999977,0.885117496336093,0.961908511999955,1.,1.37991344591595),
 .UNSPECIFIED.)
CURVE()
GEOMETRIC_REPRESENTATION_ITEM()
RATIONAL_B_SPLINE_CURVE((1.,1.,1.,1.,1.,1.,1.,1.,1.,1.,1.,1.,1.,0.804737854124365,
0.804737854124365,1.))
REPRESENTATION_ITEM('CUTTING PART LINE')
);
#265=DRAUGHTING_PRE_DEFINED_COLOUR('white');
#266=DRAUGHTING_PRE_DEFINED_COLOUR('blue');
#267=PRESENTATION_LAYER_ASSIGNMENT('1','Layer 1',(#413,#414,#415,#263,#297,
#298,#299,#38,#39));
#268=STYLED_ITEM('',(#277),#413);
#269=STYLED_ITEM('',(#278),#414);
#270=STYLED_ITEM('',(#279),#415);
#271=STYLED_ITEM('',(#280),#263);
#272=STYLED_ITEM('',(#281),#297);
#273=STYLED_ITEM('',(#282),#298);
#274=STYLED_ITEM('',(#283),#299);
#275=STYLED_ITEM('',(#284),#38);
#276=STYLED_ITEM('',(#285),#39);
#277=PRESENTATION_STYLE_ASSIGNMENT((#286));
#278=PRESENTATION_STYLE_ASSIGNMENT((#287));
#279=PRESENTATION_STYLE_ASSIGNMENT((#288));
#280=PRESENTATION_STYLE_ASSIGNMENT((#255));
#281=PRESENTATION_STYLE_ASSIGNMENT((#256));
#282=PRESENTATION_STYLE_ASSIGNMENT((#257));
#283=PRESENTATION_STYLE_ASSIGNMENT((#258));
#284=PRESENTATION_STYLE_ASSIGNMENT((#28));
#285=PRESENTATION_STYLE_ASSIGNMENT((#29));
#286=POINT_STYLE('',#289,POSITIVE_LENGTH_MEASURE(3.),#292);
#287=POINT_STYLE('',#290,POSITIVE_LENGTH_MEASURE(3.),#265);
#288=POINT_STYLE('',#291,POSITIVE_LENGTH_MEASURE(3.),#292);
#289=PRE_DEFINED_POINT_MARKER_SYMBOL('plus');
#290=PRE_DEFINED_POINT_MARKER_SYMBOL('plus');
#291=PRE_DEFINED_POINT_MARKER_SYMBOL('plus');
#292=COLOUR_RGB('Medium Maroon',0.6,0.4,0.4);
#293=COLOUR_RGB('Silver Gray',0.6,0.6,0.6);
#294=COLOUR_RGB('TLS_NOCUT',0.498023956664378,0.498023956664378,0.498023956664378);
#295=COLOUR_RGB('TLS_CUT',0.8,0.8,0.8);
#296=AXIS2_PLACEMENT_3D('',#412,#332,#333);
#297=AXIS2_PLACEMENT_3D('PCS',#432,#334,#335);
#298=AXIS2_PLACEMENT_3D('MCS',#433,#336,#337);
#299=AXIS2_PLACEMENT_3D('CIP',#434,#338,#339);
#300=AXIS2_PLACEMENT_3D('',#438,#341,#342);
#301=AXIS2_PLACEMENT_3D('',#439,#343,#344);
#302=AXIS2_PLACEMENT_3D('',#440,#345,#346);
#303=AXIS2_PLACEMENT_3D('',#445,#348,#349);
#304=AXIS2_PLACEMENT_3D('',#448,#351,#352);
#305=AXIS2_PLACEMENT_3D('',#453,#354,#355);
#306=AXIS2_PLACEMENT_3D('',#457,#357,#358);
#307=AXIS2_PLACEMENT_3D('',#458,#359,#360);
#308=AXIS2_PLACEMENT_3D('',#467,#361,#362);
#309=AXIS2_PLACEMENT_3D('',#468,#363,#364);
#310=AXIS2_PLACEMENT_3D('',#470,#365,#366);
#311=AXIS2_PLACEMENT_3D('',#471,#367,#368);
#312=AXIS2_PLACEMENT_3D('',#473,#369,#370);
#313=AXIS2_PLACEMENT_3D('',#475,#371,#372);
#314=AXIS2_PLACEMENT_3D('',#476,#373,#374);
#315=AXIS2_PLACEMENT_3D('',#478,#375,#376);
#316=AXIS2_PLACEMENT_3D('',#480,#377,#378);
#317=AXIS2_PLACEMENT_3D('',#481,#379,#380);
#318=AXIS2_PLACEMENT_3D('',#482,#381,#382);
#319=AXIS2_PLACEMENT_3D('',#484,#384,#385);
#320=AXIS2_PLACEMENT_3D('',#485,#386,#387);
#321=AXIS2_PLACEMENT_3D('',#487,#389,#390);
#322=AXIS2_PLACEMENT_3D('',#489,#392,#393);
#323=AXIS2_PLACEMENT_3D('',#490,#394,#395);
#324=AXIS2_PLACEMENT_3D('',#491,#396,#397);
#325=AXIS2_PLACEMENT_3D('',#492,#398,#399);
#326=AXIS2_PLACEMENT_3D('',#494,#400,#401);
#327=AXIS2_PLACEMENT_3D('',#495,#402,#403);
#328=AXIS2_PLACEMENT_3D('',#497,#404,#405);
#329=AXIS2_PLACEMENT_3D('',#498,#406,#407);
#330=AXIS2_PLACEMENT_3D('',#500,#408,#409);
#331=AXIS2_PLACEMENT_3D('',#501,#410,#411);
#332=DIRECTION('',(0.,0.,1.));
#333=DIRECTION('',(1.,0.,0.));
#334=DIRECTION('',(0.,0.,1.));
#335=DIRECTION('',(1.,0.,0.));
#336=DIRECTION('',(0.,0.,1.));
#337=DIRECTION('',(1.,0.,0.));
#338=DIRECTION('',(0.,0.,1.));
#339=DIRECTION('',(1.,0.,0.));
#340=DIRECTION('',(1.,0.,0.));
#341=DIRECTION('',(0.,0.,1.));
#342=DIRECTION('',(-1.,0.,0.));
#343=DIRECTION('',(0.,0.,-1.));
#344=DIRECTION('',(-1.,0.,0.));
#345=DIRECTION('',(0.,0.707106781186548,-0.707106781186548));
#346=DIRECTION('',(0.,0.707106781186548,0.707106781186548));
#347=DIRECTION('',(0.,0.,1.));
#348=DIRECTION('',(0.,0.707106781186548,0.707106781186547));
#349=DIRECTION('',(0.,-0.707106781186547,0.707106781186548));
#350=DIRECTION('',(0.,0.,-1.));
#351=DIRECTION('',(0.,0.,1.));
#352=DIRECTION('',(1.,0.,0.));
#353=DIRECTION('',(0.,0.,1.));
#354=DIRECTION('',(0.,0.707106781186547,0.707106781186548));
#355=DIRECTION('',(0.,-0.707106781186548,0.707106781186547));
#356=DIRECTION('',(0.,0.,-1.));
#357=DIRECTION('',(0.,0.,-1.));
#358=DIRECTION('',(-1.,0.,0.));
#359=DIRECTION('',(0.,0.,1.));
#360=DIRECTION('',(1.,0.,0.));
#361=DIRECTION('',(0.,0.,-1.));
#362=DIRECTION('',(-1.,0.,0.));
#363=DIRECTION('',(0.,0.,1.));
#364=DIRECTION('',(1.,0.,0.));
#365=DIRECTION('',(0.,0.,1.));
#366=DIRECTION('',(1.,0.,9.4190423137648E-17));
#367=DIRECTION('',(0.,0.,-1.));
#368=DIRECTION('',(-1.,0.,0.));
#369=DIRECTION('',(0.,0.,-1.));
#370=DIRECTION('',(-1.,0.,0.));
#371=DIRECTION('',(0.,0.,-1.));
#372=DIRECTION('',(-1.,0.,7.0582935361956E-17));
#373=DIRECTION('',(0.,0.,1.));
#374=DIRECTION('',(1.,0.,0.));
#375=DIRECTION('',(0.,0.,-1.));
#376=DIRECTION('',(1.,0.,0.));
#377=DIRECTION('',(0.,0.,1.));
#378=DIRECTION('',(1.,0.,0.));
#379=DIRECTION('',(0.,0.,1.));
#380=DIRECTION('',(1.,0.,0.));
#381=DIRECTION('',(0.,0.,1.));
#382=DIRECTION('',(1.,0.,0.));
#383=DIRECTION('',(1.,0.,0.));
#384=DIRECTION('',(0.,1.,0.));
#385=DIRECTION('',(0.,0.,-1.));
#386=DIRECTION('',(0.,0.707106781186547,0.707106781186548));
#387=DIRECTION('',(0.,0.707106781186548,-0.707106781186547));
#388=DIRECTION('',(1.,0.,0.));
#389=DIRECTION('',(0.,0.707106781186548,-0.707106781186548));
#390=DIRECTION('',(0.,-0.707106781186548,-0.707106781186548));
#391=DIRECTION('',(1.,0.,0.));
#392=DIRECTION('',(0.,1.,-1.44560289664734E-16));
#393=DIRECTION('',(0.,-1.43982048506075E-16,-1.));
#394=DIRECTION('',(0.,0.707106781186548,0.707106781186547));
#395=DIRECTION('',(0.,0.707106781186547,-0.707106781186548));
#396=DIRECTION('',(0.,0.,-1.));
#397=DIRECTION('',(-1.,0.,0.));
#398=DIRECTION('',(0.,0.,1.));
#399=DIRECTION('',(1.,0.,0.));
#400=DIRECTION('',(0.,0.,1.));
#401=DIRECTION('',(1.,0.,0.));
#402=DIRECTION('',(0.,0.,-1.));
#403=DIRECTION('',(1.,0.,0.));
#404=DIRECTION('',(0.,0.,1.));
#405=DIRECTION('',(1.,0.,0.));
#406=DIRECTION('',(0.,0.,1.));
#407=DIRECTION('',(1.,0.,0.));
#408=DIRECTION('',(0.,0.,1.));
#409=DIRECTION('',(1.,0.,0.));
#410=DIRECTION('',(0.,0.,1.));
#411=DIRECTION('',(1.,0.,0.));
#412=CARTESIAN_POINT('',(0.,0.,0.));
#413=CARTESIAN_POINT('',(0.,0.,-56.));
#414=CARTESIAN_POINT('CRP',(-12.5,0.,-135.));
#415=CARTESIAN_POINT('CIP_DCSYS',(0.,0.,-135.));
#416=CARTESIAN_POINT('',(-12.5,0.,-132.));
#417=CARTESIAN_POINT('',(-12.5,0.,-116.333333333333));
#418=CARTESIAN_POINT('',(-12.5,0.,-100.666666666667));
#419=CARTESIAN_POINT('',(-12.5,0.,-85.));
#420=CARTESIAN_POINT('',(-8.33333333333334,0.,-85.));
#421=CARTESIAN_POINT('',(-4.16666666666667,0.,-85.));
#422=CARTESIAN_POINT('',(0.,0.,-85.));
#423=CARTESIAN_POINT('',(0.,0.,-101.666666666667));
#424=CARTESIAN_POINT('',(0.,0.,-118.333333333333));
#425=CARTESIAN_POINT('',(0.,0.,-135.));
#426=CARTESIAN_POINT('',(-3.16666666666667,0.,-135.));
#427=CARTESIAN_POINT('',(-6.33333333333334,0.,-135.));
#428=CARTESIAN_POINT('',(-9.50000000000001,0.,-135.));
#429=CARTESIAN_POINT('',(-11.2573593128807,0.,-135.));
#430=CARTESIAN_POINT('',(-12.5,0.,-133.757359312881));
#431=CARTESIAN_POINT('',(-12.5,0.,-132.));
#432=CARTESIAN_POINT('',(0.,0.,0.));
#433=CARTESIAN_POINT('',(0.,0.,-56.));
#434=CARTESIAN_POINT('',(0.,0.,-135.));
#435=CARTESIAN_POINT('',(0.,10.5,0.));
#436=CARTESIAN_POINT('',(-4.69041575982344,10.5,-1.23795024519963E-16));
#437=CARTESIAN_POINT('',(4.69041575982344,10.5,0.));
#438=CARTESIAN_POINT('',(0.,0.,0.));
#439=CARTESIAN_POINT('',(0.,12.5,0.));
#440=CARTESIAN_POINT('',(0.,0.,-36.5));
#441=CARTESIAN_POINT('',(-6.78232998312526,10.5,-26.));
#442=CARTESIAN_POINT('',(6.78232998312526,10.5,-26.));
#443=CARTESIAN_POINT('',(-6.78232998312526,10.5,20.9080749503476));
#444=CARTESIAN_POINT('',(-6.78232998312527,10.5,-38.));
#445=CARTESIAN_POINT('',(0.,0.,-27.5));
#446=CARTESIAN_POINT('',(6.78232998312527,10.5,-38.));
#447=CARTESIAN_POINT('',(6.78232998312526,10.5,20.9080749503476));
#448=CARTESIAN_POINT('',(0.,0.,-58.8637043259453));
#449=CARTESIAN_POINT('',(12.5,0.,-58.8637043259453));
#450=CARTESIAN_POINT('',(-6.78232998312528,10.5,20.9080749503476));
#451=CARTESIAN_POINT('',(-6.78232998312527,10.5,-17.));
#452=CARTESIAN_POINT('',(-6.78232998312528,10.5,-0.999999999999997));
#453=CARTESIAN_POINT('',(0.,0.,-6.50000000000001));
#454=CARTESIAN_POINT('',(6.78232998312527,10.5,-17.));
#455=CARTESIAN_POINT('',(6.78232998312528,10.5,20.9080749503476));
#456=CARTESIAN_POINT('',(6.78232998312528,10.5,-0.999999999999997));
#457=CARTESIAN_POINT('',(0.,0.,-0.999999999999997));
#458=CARTESIAN_POINT('',(0.,0.,20.9080749503476));
#459=CARTESIAN_POINT('',(6.78232998312528,10.5,-0.999999999999997));
#460=CARTESIAN_POINT('',(6.1018010621907,10.5,-0.63075426361292));
#461=CARTESIAN_POINT('',(5.40395096505582,10.5,-0.291024067113982));
#462=CARTESIAN_POINT('',(4.69041575982344,10.5,3.88610844072734E-16));
#463=CARTESIAN_POINT('',(-4.69041575982344,10.5,-1.88966873347019E-15));
#464=CARTESIAN_POINT('',(-5.40445364369694,10.5,-0.291229090750545));
#465=CARTESIAN_POINT('',(-6.1056876934673,10.5,-0.632863096880171));
#466=CARTESIAN_POINT('',(-6.78232998312528,10.5,-0.999999999999999));
#467=CARTESIAN_POINT('',(0.,0.,0.));
#468=CARTESIAN_POINT('',(0.,0.,-59.4976789221609));
#469=CARTESIAN_POINT('',(12.1339745962156,0.,-59.4976789221609));
#470=CARTESIAN_POINT('',(0.,0.,-59.7297297297297));
#471=CARTESIAN_POINT('',(0.,0.,-84.3660254037844));
#472=CARTESIAN_POINT('',(-12.1339745962156,0.,-84.3660254037844));
#473=CARTESIAN_POINT('',(0.,0.,-85.));
#474=CARTESIAN_POINT('',(-12.5,0.,-85.));
#475=CARTESIAN_POINT('',(0.,0.,-85.));
#476=CARTESIAN_POINT('',(0.,0.,-83.8660254037844));
#477=CARTESIAN_POINT('',(12.,0.,-83.8660254037844));
#478=CARTESIAN_POINT('',(0.,0.,-59.9976789221609));
#479=CARTESIAN_POINT('',(12.,0.,-59.9976789221609));
#480=CARTESIAN_POINT('',(0.,0.,0.));
#481=CARTESIAN_POINT('',(0.,0.,-59.9976789221609));
#482=CARTESIAN_POINT('',(0.,0.,-83.8660254037844));
#483=CARTESIAN_POINT('',(10.,10.5,-17.));
#484=CARTESIAN_POINT('',(10.,10.5,2.));
#485=CARTESIAN_POINT('',(10.,10.5,-17.));
#486=CARTESIAN_POINT('',(10.,10.5,-26.));
#487=CARTESIAN_POINT('',(10.,12.5,-24.));
#488=CARTESIAN_POINT('',(10.,10.5,-38.));
#489=CARTESIAN_POINT('',(10.,10.5,-26.));
#490=CARTESIAN_POINT('',(10.,12.5,-40.));
#491=CARTESIAN_POINT('',(0.,0.,-85.));
#492=CARTESIAN_POINT('',(0.,0.,-85.));
#493=CARTESIAN_POINT('',(12.5,0.,-85.));
#494=CARTESIAN_POINT('',(0.,0.,-85.));
#495=CARTESIAN_POINT('',(0.,0.,-135.));
#496=CARTESIAN_POINT('',(9.50000000000001,0.,-135.));
#497=CARTESIAN_POINT('',(0.,0.,-135.));
#498=CARTESIAN_POINT('',(0.,0.,-132.));
#499=CARTESIAN_POINT('',(12.5,0.,-132.));
#500=CARTESIAN_POINT('',(0.,0.,0.));
#501=CARTESIAN_POINT('',(0.,0.,-132.));
#502=MECHANICAL_DESIGN_GEOMETRIC_PRESENTATION_REPRESENTATION('',(#268,#269,
#270,#271,#272,#273,#274,#275,#276),#503);
#503=(
GEOMETRIC_REPRESENTATION_CONTEXT(3)
GLOBAL_UNCERTAINTY_ASSIGNED_CONTEXT((#504))
GLOBAL_UNIT_ASSIGNED_CONTEXT((#510,#506,#505))
REPRESENTATION_CONTEXT('TOOL','TOP_LEVEL_ASSEMBLY_PART')
);
#504=UNCERTAINTY_MEASURE_WITH_UNIT(LENGTH_MEASURE(0.0508),#510,
'DISTANCE_ACCURACY_VALUE','Maximum Tolerance applied to model');
#505=(
NAMED_UNIT(*)
SI_UNIT($,.STERADIAN.)
SOLID_ANGLE_UNIT()
);
#506=(
CONVERSION_BASED_UNIT('DEGREE',#508)
NAMED_UNIT(#507)
PLANE_ANGLE_UNIT()
);
#507=DIMENSIONAL_EXPONENTS(0.,0.,0.,0.,0.,0.,0.);
#508=PLANE_ANGLE_MEASURE_WITH_UNIT(PLANE_ANGLE_MEASURE(0.0174532925),#509);
#509=(
NAMED_UNIT(*)
PLANE_ANGLE_UNIT()
SI_UNIT($,.RADIAN.)
);
#510=(
LENGTH_UNIT()
NAMED_UNIT(*)
SI_UNIT(.MILLI.,.METRE.)
);
ENDSEC;
END-ISO-10303-21;
