ISO-10303-21;
HEADER;
/* Generated by software containing ST-Developer
 * from STEP Tools, Inc. (www.steptools.com) 
 */
/* OPTION: using custom schema-name function */

FILE_DESCRIPTION(
/* description */ (''),
/* implementation_level */ '2;1');

FILE_NAME(
/* name */ 'TOOL.STP',
/* time_stamp */ '2023-03-20T04:37:28+01:00',
/* author */ (''),
/* organization */ ('SMS'),
/* preprocessor_version */ 'ST-DEVELOPER v16.7',
/* originating_system */ 'SIEMENS PLM Software NX 12.0',
/* authorisation */ '');

FILE_SCHEMA (('AUTOMOTIVE_DESIGN { 1 0 10303 214 3 1 1 1 }'));
ENDSEC;

DATA;
#10=CONSTRUCTIVE_GEOMETRY_REPRESENTATION_RELATIONSHIP(
'supplemental geometry','',#26,#11);
#11=CONSTRUCTIVE_GEOMETRY_REPRESENTATION('supplemental geometry',(#233,
#234,#235),#389);
#12=GEOMETRICALLY_BOUNDED_WIREFRAME_SHAPE_REPRESENTATION('Tool-None',(#27),
#389);
#13=SHAPE_REPRESENTATION_RELATIONSHIP('None',
'relationship between Tool-None and Tool-None',#26,#15);
#14=SHAPE_REPRESENTATION_RELATIONSHIP('None',
'relationship between Tool-None and Tool-None',#26,#12);
#15=ADVANCED_BREP_SHAPE_REPRESENTATION('Tool-None',(#38,#39),#389);
#16=SHAPE_DEFINITION_REPRESENTATION(#17,#26);
#17=PRODUCT_DEFINITION_SHAPE('','',#18);
#18=PRODUCT_DEFINITION(' ','',#20,#19);
#19=PRODUCT_DEFINITION_CONTEXT('part definition',#25,'design');
#20=PRODUCT_DEFINITION_FORMATION_WITH_SPECIFIED_SOURCE(' ',' ',#22,
 .NOT_KNOWN.);
#21=PRODUCT_RELATED_PRODUCT_CATEGORY('part','',(#22));
#22=PRODUCT('Tool','Tool',' ',(#23));
#23=PRODUCT_CONTEXT(' ',#25,'mechanical');
#24=APPLICATION_PROTOCOL_DEFINITION('international standard',
'automotive_design',2010,#25);
#25=APPLICATION_CONTEXT(
'core data for automotive mechanical design processes');
#26=SHAPE_REPRESENTATION('Tool-None',(#232),#389);
#27=GEOMETRIC_CURVE_SET('None',(#324,#325,#326,#199));
#28=SURFACE_STYLE_USAGE(.BOTH.,#30);
#29=SURFACE_STYLE_USAGE(.BOTH.,#31);
#30=SURFACE_SIDE_STYLE('',(#32));
#31=SURFACE_SIDE_STYLE('',(#33));
#32=SURFACE_STYLE_FILL_AREA(#34);
#33=SURFACE_STYLE_FILL_AREA(#35);
#34=FILL_AREA_STYLE('',(#36));
#35=FILL_AREA_STYLE('',(#37));
#36=FILL_AREA_STYLE_COLOUR('',#230);
#37=FILL_AREA_STYLE_COLOUR('',#231);
#38=MANIFOLD_SOLID_BREP('NOCUT',#40);
#39=MANIFOLD_SOLID_BREP('CUT',#41);
#40=CLOSED_SHELL('',(#60,#61,#62,#63,#64,#65,#66,#67,#68,#69));
#41=CLOSED_SHELL('',(#70,#71,#72,#73));
#42=CONICAL_SURFACE('',#249,2.6,45.);
#43=PLANE('',#248);
#44=PLANE('',#250);
#45=PLANE('',#251);
#46=PLANE('',#252);
#47=PLANE('',#253);
#48=PLANE('',#255);
#49=PLANE('',#257);
#50=FACE_OUTER_BOUND('',#111,.T.);
#51=FACE_OUTER_BOUND('',#114,.T.);
#52=FACE_OUTER_BOUND('',#115,.T.);
#53=FACE_OUTER_BOUND('',#116,.T.);
#54=FACE_OUTER_BOUND('',#117,.T.);
#55=FACE_OUTER_BOUND('',#118,.T.);
#56=FACE_OUTER_BOUND('',#119,.T.);
#57=TOROIDAL_SURFACE('',#244,3.88,1.);
#58=TOROIDAL_SURFACE('',#246,3.88,1.);
#59=TOROIDAL_SURFACE('',#260,2.5,0.5);
#60=ADVANCED_FACE('',(#87,#88,#89),#74,.T.);
#61=ADVANCED_FACE('',(#90,#91),#75,.T.);
#62=ADVANCED_FACE('',(#92,#93),#57,.F.);
#63=ADVANCED_FACE('',(#94,#95),#58,.F.);
#64=ADVANCED_FACE('',(#50),#43,.F.);
#65=ADVANCED_FACE('',(#96,#97),#42,.T.);
#66=ADVANCED_FACE('',(#51),#44,.T.);
#67=ADVANCED_FACE('',(#52),#45,.T.);
#68=ADVANCED_FACE('',(#53),#46,.T.);
#69=ADVANCED_FACE('',(#54),#47,.T.);
#70=ADVANCED_FACE('',(#55),#48,.T.);
#71=ADVANCED_FACE('',(#56),#49,.F.);
#72=ADVANCED_FACE('',(#98,#99),#76,.T.);
#73=ADVANCED_FACE('',(#100,#101),#59,.T.);
#74=CYLINDRICAL_SURFACE('',#240,3.);
#75=CYLINDRICAL_SURFACE('',#243,2.88);
#76=CYLINDRICAL_SURFACE('',#259,3.);
#77=LINE('',#353,#81);
#78=LINE('',#357,#82);
#79=LINE('',#372,#83);
#80=LINE('',#374,#84);
#81=VECTOR('',#275,1.);
#82=VECTOR('',#278,1.);
#83=VECTOR('',#299,1.);
#84=VECTOR('',#302,1.);
#85=ELLIPSE('',#238,4.24264068711929,3.);
#86=ELLIPSE('',#239,4.24264068711928,3.);
#87=FACE_BOUND('',#102,.T.);
#88=FACE_BOUND('',#103,.T.);
#89=FACE_BOUND('',#104,.T.);
#90=FACE_BOUND('',#105,.T.);
#91=FACE_BOUND('',#106,.T.);
#92=FACE_BOUND('',#107,.T.);
#93=FACE_BOUND('',#108,.T.);
#94=FACE_BOUND('',#109,.T.);
#95=FACE_BOUND('',#110,.T.);
#96=FACE_BOUND('',#112,.T.);
#97=FACE_BOUND('',#113,.T.);
#98=FACE_BOUND('',#120,.T.);
#99=FACE_BOUND('',#121,.T.);
#100=FACE_BOUND('',#122,.T.);
#101=FACE_BOUND('',#123,.T.);
#102=EDGE_LOOP('',(#124));
#103=EDGE_LOOP('',(#125));
#104=EDGE_LOOP('',(#126,#127,#128,#129));
#105=EDGE_LOOP('',(#130));
#106=EDGE_LOOP('',(#131));
#107=EDGE_LOOP('',(#132));
#108=EDGE_LOOP('',(#133));
#109=EDGE_LOOP('',(#134));
#110=EDGE_LOOP('',(#135));
#111=EDGE_LOOP('',(#136));
#112=EDGE_LOOP('',(#137));
#113=EDGE_LOOP('',(#138));
#114=EDGE_LOOP('',(#139,#140));
#115=EDGE_LOOP('',(#141,#142,#143,#144));
#116=EDGE_LOOP('',(#145,#146));
#117=EDGE_LOOP('',(#147));
#118=EDGE_LOOP('',(#148));
#119=EDGE_LOOP('',(#149));
#120=EDGE_LOOP('',(#150));
#121=EDGE_LOOP('',(#151));
#122=EDGE_LOOP('',(#152));
#123=EDGE_LOOP('',(#153));
#124=ORIENTED_EDGE('',*,*,#167,.T.);
#125=ORIENTED_EDGE('',*,*,#168,.T.);
#126=ORIENTED_EDGE('',*,*,#169,.F.);
#127=ORIENTED_EDGE('',*,*,#170,.F.);
#128=ORIENTED_EDGE('',*,*,#171,.F.);
#129=ORIENTED_EDGE('',*,*,#172,.F.);
#130=ORIENTED_EDGE('',*,*,#173,.T.);
#131=ORIENTED_EDGE('',*,*,#174,.T.);
#132=ORIENTED_EDGE('',*,*,#174,.F.);
#133=ORIENTED_EDGE('',*,*,#167,.F.);
#134=ORIENTED_EDGE('',*,*,#175,.F.);
#135=ORIENTED_EDGE('',*,*,#173,.F.);
#136=ORIENTED_EDGE('',*,*,#176,.T.);
#137=ORIENTED_EDGE('',*,*,#168,.F.);
#138=ORIENTED_EDGE('',*,*,#176,.F.);
#139=ORIENTED_EDGE('',*,*,#169,.T.);
#140=ORIENTED_EDGE('',*,*,#177,.F.);
#141=ORIENTED_EDGE('',*,*,#170,.T.);
#142=ORIENTED_EDGE('',*,*,#177,.T.);
#143=ORIENTED_EDGE('',*,*,#172,.T.);
#144=ORIENTED_EDGE('',*,*,#178,.F.);
#145=ORIENTED_EDGE('',*,*,#171,.T.);
#146=ORIENTED_EDGE('',*,*,#178,.T.);
#147=ORIENTED_EDGE('',*,*,#175,.T.);
#148=ORIENTED_EDGE('',*,*,#179,.T.);
#149=ORIENTED_EDGE('',*,*,#180,.T.);
#150=ORIENTED_EDGE('',*,*,#181,.T.);
#151=ORIENTED_EDGE('',*,*,#179,.F.);
#152=ORIENTED_EDGE('',*,*,#180,.F.);
#153=ORIENTED_EDGE('',*,*,#181,.F.);
#154=VERTEX_POINT('',#347);
#155=VERTEX_POINT('',#349);
#156=VERTEX_POINT('',#351);
#157=VERTEX_POINT('',#352);
#158=VERTEX_POINT('',#354);
#159=VERTEX_POINT('',#356);
#160=VERTEX_POINT('',#360);
#161=VERTEX_POINT('',#362);
#162=VERTEX_POINT('',#366);
#163=VERTEX_POINT('',#369);
#164=VERTEX_POINT('',#379);
#165=VERTEX_POINT('',#382);
#166=VERTEX_POINT('',#385);
#167=EDGE_CURVE('',#154,#154,#182,.T.);
#168=EDGE_CURVE('',#155,#155,#183,.T.);
#169=EDGE_CURVE('',#156,#157,#85,.T.);
#170=EDGE_CURVE('',#158,#156,#77,.T.);
#171=EDGE_CURVE('',#159,#158,#86,.T.);
#172=EDGE_CURVE('',#157,#159,#78,.T.);
#173=EDGE_CURVE('',#160,#160,#184,.T.);
#174=EDGE_CURVE('',#161,#161,#185,.T.);
#175=EDGE_CURVE('',#162,#162,#186,.T.);
#176=EDGE_CURVE('',#163,#163,#187,.T.);
#177=EDGE_CURVE('',#156,#157,#79,.T.);
#178=EDGE_CURVE('',#158,#159,#80,.T.);
#179=EDGE_CURVE('',#164,#164,#188,.T.);
#180=EDGE_CURVE('',#165,#165,#189,.T.);
#181=EDGE_CURVE('',#166,#166,#190,.T.);
#182=CIRCLE('',#236,3.);
#183=CIRCLE('',#237,3.);
#184=CIRCLE('',#241,2.88);
#185=CIRCLE('',#242,2.88);
#186=CIRCLE('',#245,3.);
#187=CIRCLE('',#247,2.6);
#188=CIRCLE('',#254,3.);
#189=CIRCLE('',#256,2.5);
#190=CIRCLE('',#258,3.);
#191=CURVE_STYLE('',#195,POSITIVE_LENGTH_MEASURE(0.18),#202);
#192=CURVE_STYLE('',#196,POSITIVE_LENGTH_MEASURE(0.13),#229);
#193=CURVE_STYLE('',#197,POSITIVE_LENGTH_MEASURE(0.18),#228);
#194=CURVE_STYLE('',#198,POSITIVE_LENGTH_MEASURE(0.18),#228);
#195=DRAUGHTING_PRE_DEFINED_CURVE_FONT('continuous');
#196=DRAUGHTING_PRE_DEFINED_CURVE_FONT('continuous');
#197=DRAUGHTING_PRE_DEFINED_CURVE_FONT('continuous');
#198=DRAUGHTING_PRE_DEFINED_CURVE_FONT('continuous');
#199=TRIMMED_CURVE('CUTTING PART LINE',#200,(PARAMETER_VALUE(0.)),(
PARAMETER_VALUE(1.)),.T.,.PARAMETER.);
#200=(
BOUNDED_CURVE()
B_SPLINE_CURVE(3,(#327,#328,#329,#330,#331,#332,#333,#334,#335,#336,#337,
#338,#339,#340,#341,#342),.UNSPECIFIED.,.T.,.F.)
B_SPLINE_CURVE_WITH_KNOTS((1,3,3,3,3,3,3,1),(-0.0263685635155617,0.,0.3860952248121,
0.486815718242219,0.889697691959339,0.973631436484438,1.,1.3860952248121),
 .UNSPECIFIED.)
CURVE()
GEOMETRIC_REPRESENTATION_ITEM()
RATIONAL_B_SPLINE_CURVE((1.,1.,1.,1.,1.,1.,1.,1.,1.,1.,1.,1.,1.,0.804737854124365,
0.804737854124365,1.))
REPRESENTATION_ITEM('CUTTING PART LINE')
);
#201=DRAUGHTING_PRE_DEFINED_COLOUR('white');
#202=DRAUGHTING_PRE_DEFINED_COLOUR('blue');
#203=PRESENTATION_LAYER_ASSIGNMENT('1','Layer 1',(#324,#325,#326,#199,#233,
#234,#235,#38,#39));
#204=STYLED_ITEM('',(#213),#324);
#205=STYLED_ITEM('',(#214),#325);
#206=STYLED_ITEM('',(#215),#326);
#207=STYLED_ITEM('',(#216),#199);
#208=STYLED_ITEM('',(#217),#233);
#209=STYLED_ITEM('',(#218),#234);
#210=STYLED_ITEM('',(#219),#235);
#211=STYLED_ITEM('',(#220),#38);
#212=STYLED_ITEM('',(#221),#39);
#213=PRESENTATION_STYLE_ASSIGNMENT((#222));
#214=PRESENTATION_STYLE_ASSIGNMENT((#223));
#215=PRESENTATION_STYLE_ASSIGNMENT((#224));
#216=PRESENTATION_STYLE_ASSIGNMENT((#191));
#217=PRESENTATION_STYLE_ASSIGNMENT((#192));
#218=PRESENTATION_STYLE_ASSIGNMENT((#193));
#219=PRESENTATION_STYLE_ASSIGNMENT((#194));
#220=PRESENTATION_STYLE_ASSIGNMENT((#28));
#221=PRESENTATION_STYLE_ASSIGNMENT((#29));
#222=POINT_STYLE('',#225,POSITIVE_LENGTH_MEASURE(3.),#228);
#223=POINT_STYLE('',#226,POSITIVE_LENGTH_MEASURE(3.),#201);
#224=POINT_STYLE('',#227,POSITIVE_LENGTH_MEASURE(3.),#228);
#225=PRE_DEFINED_POINT_MARKER_SYMBOL('plus');
#226=PRE_DEFINED_POINT_MARKER_SYMBOL('plus');
#227=PRE_DEFINED_POINT_MARKER_SYMBOL('plus');
#228=COLOUR_RGB('Medium Maroon',0.6,0.4,0.4);
#229=COLOUR_RGB('Silver Gray',0.6,0.6,0.6);
#230=COLOUR_RGB('TLS_NOCUT',0.498023956664378,0.498023956664378,0.498023956664378);
#231=COLOUR_RGB('TLS_CUT',0.8,0.8,0.8);
#232=AXIS2_PLACEMENT_3D('',#323,#261,#262);
#233=AXIS2_PLACEMENT_3D('PCS',#343,#263,#264);
#234=AXIS2_PLACEMENT_3D('MCS',#344,#265,#266);
#235=AXIS2_PLACEMENT_3D('CIP',#345,#267,#268);
#236=AXIS2_PLACEMENT_3D('',#346,#269,#270);
#237=AXIS2_PLACEMENT_3D('',#348,#271,#272);
#238=AXIS2_PLACEMENT_3D('',#350,#273,#274);
#239=AXIS2_PLACEMENT_3D('',#355,#276,#277);
#240=AXIS2_PLACEMENT_3D('',#358,#279,#280);
#241=AXIS2_PLACEMENT_3D('',#359,#281,#282);
#242=AXIS2_PLACEMENT_3D('',#361,#283,#284);
#243=AXIS2_PLACEMENT_3D('',#363,#285,#286);
#244=AXIS2_PLACEMENT_3D('',#364,#287,#288);
#245=AXIS2_PLACEMENT_3D('',#365,#289,#290);
#246=AXIS2_PLACEMENT_3D('',#367,#291,#292);
#247=AXIS2_PLACEMENT_3D('',#368,#293,#294);
#248=AXIS2_PLACEMENT_3D('',#370,#295,#296);
#249=AXIS2_PLACEMENT_3D('',#371,#297,#298);
#250=AXIS2_PLACEMENT_3D('',#373,#300,#301);
#251=AXIS2_PLACEMENT_3D('',#375,#303,#304);
#252=AXIS2_PLACEMENT_3D('',#376,#305,#306);
#253=AXIS2_PLACEMENT_3D('',#377,#307,#308);
#254=AXIS2_PLACEMENT_3D('',#378,#309,#310);
#255=AXIS2_PLACEMENT_3D('',#380,#311,#312);
#256=AXIS2_PLACEMENT_3D('',#381,#313,#314);
#257=AXIS2_PLACEMENT_3D('',#383,#315,#316);
#258=AXIS2_PLACEMENT_3D('',#384,#317,#318);
#259=AXIS2_PLACEMENT_3D('',#386,#319,#320);
#260=AXIS2_PLACEMENT_3D('',#387,#321,#322);
#261=DIRECTION('',(0.,0.,1.));
#262=DIRECTION('',(1.,0.,0.));
#263=DIRECTION('',(0.,0.,1.));
#264=DIRECTION('',(1.,0.,0.));
#265=DIRECTION('',(0.,0.,1.));
#266=DIRECTION('',(1.,0.,0.));
#267=DIRECTION('',(0.,0.,1.));
#268=DIRECTION('',(1.,0.,0.));
#269=DIRECTION('',(0.,0.,1.));
#270=DIRECTION('',(1.,0.,0.));
#271=DIRECTION('',(0.,0.,-1.));
#272=DIRECTION('',(-1.,0.,0.));
#273=DIRECTION('',(0.,0.707106781186548,-0.707106781186547));
#274=DIRECTION('',(0.,0.707106781186547,0.707106781186548));
#275=DIRECTION('',(0.,0.,1.));
#276=DIRECTION('',(0.,0.707106781186547,0.707106781186548));
#277=DIRECTION('',(0.,-0.707106781186548,0.707106781186547));
#278=DIRECTION('',(0.,0.,-1.));
#279=DIRECTION('',(0.,0.,1.));
#280=DIRECTION('',(1.,0.,0.));
#281=DIRECTION('',(0.,0.,1.));
#282=DIRECTION('',(-1.,0.,0.));
#283=DIRECTION('',(0.,0.,-1.));
#284=DIRECTION('',(1.,0.,0.));
#285=DIRECTION('',(0.,0.,1.));
#286=DIRECTION('',(1.,0.,0.));
#287=DIRECTION('',(0.,0.,1.));
#288=DIRECTION('',(1.,0.,0.));
#289=DIRECTION('',(0.,0.,-1.));
#290=DIRECTION('',(1.,0.,0.));
#291=DIRECTION('',(0.,0.,-1.));
#292=DIRECTION('',(-1.,0.,0.));
#293=DIRECTION('',(0.,0.,1.));
#294=DIRECTION('',(-1.,0.,0.));
#295=DIRECTION('',(0.,0.,-1.));
#296=DIRECTION('',(-1.,0.,0.));
#297=DIRECTION('',(0.,0.,-1.));
#298=DIRECTION('',(-1.,0.,0.));
#299=DIRECTION('',(1.,0.,0.));
#300=DIRECTION('',(0.,0.707106781186548,-0.707106781186547));
#301=DIRECTION('',(0.,-0.707106781186547,-0.707106781186548));
#302=DIRECTION('',(1.,0.,0.));
#303=DIRECTION('',(0.,1.,0.));
#304=DIRECTION('',(0.,0.,-1.));
#305=DIRECTION('',(0.,0.707106781186547,0.707106781186548));
#306=DIRECTION('',(0.,0.707106781186548,-0.707106781186547));
#307=DIRECTION('',(0.,0.,-1.));
#308=DIRECTION('',(-1.,0.,0.));
#309=DIRECTION('',(0.,0.,1.));
#310=DIRECTION('',(1.,0.,0.));
#311=DIRECTION('',(0.,0.,1.));
#312=DIRECTION('',(1.,0.,0.));
#313=DIRECTION('',(0.,0.,-1.));
#314=DIRECTION('',(1.,0.,0.));
#315=DIRECTION('',(0.,0.,1.));
#316=DIRECTION('',(1.,0.,0.));
#317=DIRECTION('',(0.,0.,1.));
#318=DIRECTION('',(1.,0.,0.));
#319=DIRECTION('',(0.,0.,1.));
#320=DIRECTION('',(1.,0.,0.));
#321=DIRECTION('',(0.,0.,1.));
#322=DIRECTION('',(1.,0.,0.));
#323=CARTESIAN_POINT('',(0.,0.,0.));
#324=CARTESIAN_POINT('',(0.,0.,-36.));
#325=CARTESIAN_POINT('CRP',(-3.,0.,-57.));
#326=CARTESIAN_POINT('CIP_DCSYS',(0.,0.,-57.));
#327=CARTESIAN_POINT('',(-3.,0.,-56.5));
#328=CARTESIAN_POINT('',(-3.,0.,-52.6666666666667));
#329=CARTESIAN_POINT('',(-3.,0.,-48.8333333333333));
#330=CARTESIAN_POINT('',(-3.,0.,-45.));
#331=CARTESIAN_POINT('',(-2.,0.,-45.));
#332=CARTESIAN_POINT('',(-1.,0.,-45.));
#333=CARTESIAN_POINT('',(0.,0.,-45.));
#334=CARTESIAN_POINT('',(0.,0.,-49.));
#335=CARTESIAN_POINT('',(0.,0.,-53.));
#336=CARTESIAN_POINT('',(0.,0.,-57.));
#337=CARTESIAN_POINT('',(-0.833333333333334,0.,-57.));
#338=CARTESIAN_POINT('',(-1.66666666666667,0.,-57.));
#339=CARTESIAN_POINT('',(-2.5,0.,-57.));
#340=CARTESIAN_POINT('',(-2.79289321881345,0.,-57.));
#341=CARTESIAN_POINT('',(-3.,0.,-56.7928932188135));
#342=CARTESIAN_POINT('',(-3.,0.,-56.5));
#343=CARTESIAN_POINT('',(0.,0.,0.));
#344=CARTESIAN_POINT('',(0.,0.,-36.));
#345=CARTESIAN_POINT('',(0.,0.,-57.));
#346=CARTESIAN_POINT('',(0.,0.,-38.5218836328215));
#347=CARTESIAN_POINT('',(3.,0.,-38.5218836328215));
#348=CARTESIAN_POINT('',(0.,0.,-0.400000000000001));
#349=CARTESIAN_POINT('',(-3.,0.,-0.400000000000001));
#350=CARTESIAN_POINT('',(0.,0.,-18.));
#351=CARTESIAN_POINT('',(-2.14242852856286,2.09999999999999,-15.9));
#352=CARTESIAN_POINT('',(2.14242852856286,2.09999999999999,-15.9));
#353=CARTESIAN_POINT('',(-2.14242852856286,2.09999999999999,20.9080749503476));
#354=CARTESIAN_POINT('',(-2.14242852856287,2.09999999999999,-20.1));
#355=CARTESIAN_POINT('',(0.,0.,-18.));
#356=CARTESIAN_POINT('',(2.14242852856287,2.09999999999999,-20.1));
#357=CARTESIAN_POINT('',(2.14242852856286,2.09999999999999,20.9080749503476));
#358=CARTESIAN_POINT('',(0.,0.,20.9080749503476));
#359=CARTESIAN_POINT('',(0.,0.,-44.5250263165185));
#360=CARTESIAN_POINT('',(-2.88,0.,-44.5250263165185));
#361=CARTESIAN_POINT('',(0.,0.,-38.996857316303));
#362=CARTESIAN_POINT('',(2.88,0.,-38.996857316303));
#363=CARTESIAN_POINT('',(0.,0.,0.));
#364=CARTESIAN_POINT('',(0.,0.,-38.996857316303));
#365=CARTESIAN_POINT('',(0.,0.,-45.));
#366=CARTESIAN_POINT('',(3.,0.,-45.));
#367=CARTESIAN_POINT('',(0.,0.,-44.5250263165185));
#368=CARTESIAN_POINT('',(0.,0.,0.));
#369=CARTESIAN_POINT('',(-2.6,0.,0.));
#370=CARTESIAN_POINT('',(0.,3.00000000000001,0.));
#371=CARTESIAN_POINT('',(0.,0.,0.));
#372=CARTESIAN_POINT('',(10.,2.09999999999999,-15.9));
#373=CARTESIAN_POINT('',(10.,3.00000000000001,-15.));
#374=CARTESIAN_POINT('',(10.,2.09999999999999,-20.1));
#375=CARTESIAN_POINT('',(10.,2.09999999999999,-15.9));
#376=CARTESIAN_POINT('',(10.,3.,-21.));
#377=CARTESIAN_POINT('',(0.,0.,-45.));
#378=CARTESIAN_POINT('',(0.,0.,-45.));
#379=CARTESIAN_POINT('',(3.,0.,-45.));
#380=CARTESIAN_POINT('',(0.,0.,-45.));
#381=CARTESIAN_POINT('',(0.,0.,-57.));
#382=CARTESIAN_POINT('',(2.5,0.,-57.));
#383=CARTESIAN_POINT('',(0.,0.,-57.));
#384=CARTESIAN_POINT('',(0.,0.,-56.5));
#385=CARTESIAN_POINT('',(3.,0.,-56.5));
#386=CARTESIAN_POINT('',(0.,0.,0.));
#387=CARTESIAN_POINT('',(0.,0.,-56.5));
#388=MECHANICAL_DESIGN_GEOMETRIC_PRESENTATION_REPRESENTATION('',(#204,#205,
#206,#207,#208,#209,#210,#211,#212),#389);
#389=(
GEOMETRIC_REPRESENTATION_CONTEXT(3)
GLOBAL_UNCERTAINTY_ASSIGNED_CONTEXT((#390))
GLOBAL_UNIT_ASSIGNED_CONTEXT((#396,#392,#391))
REPRESENTATION_CONTEXT('TOOL','TOP_LEVEL_ASSEMBLY_PART')
);
#390=UNCERTAINTY_MEASURE_WITH_UNIT(LENGTH_MEASURE(2.E-5),#396,
'DISTANCE_ACCURACY_VALUE','Maximum Tolerance applied to model');
#391=(
NAMED_UNIT(*)
SI_UNIT($,.STERADIAN.)
SOLID_ANGLE_UNIT()
);
#392=(
CONVERSION_BASED_UNIT('DEGREE',#394)
NAMED_UNIT(#393)
PLANE_ANGLE_UNIT()
);
#393=DIMENSIONAL_EXPONENTS(0.,0.,0.,0.,0.,0.,0.);
#394=PLANE_ANGLE_MEASURE_WITH_UNIT(PLANE_ANGLE_MEASURE(0.0174532925),#395);
#395=(
NAMED_UNIT(*)
PLANE_ANGLE_UNIT()
SI_UNIT($,.RADIAN.)
);
#396=(
LENGTH_UNIT()
NAMED_UNIT(*)
SI_UNIT(.MILLI.,.METRE.)
);
ENDSEC;
END-ISO-10303-21;
