ISO-10303-21;
HEADER;
/* Generated by software containing ST-Developer
 * from STEP Tools, Inc. (www.steptools.com) 
 */
/* OPTION: using custom schema-name function */

FILE_DESCRIPTION(
/* description */ (''),
/* implementation_level */ '2;1');

FILE_NAME(
/* name */ 'TOOL.STP',
/* time_stamp */ '2023-03-20T04:36:35+01:00',
/* author */ (''),
/* organization */ ('SMS'),
/* preprocessor_version */ 'ST-DEVELOPER v16.7',
/* originating_system */ 'SIEMENS PLM Software NX 12.0',
/* authorisation */ '');

FILE_SCHEMA (('AUTOMOTIVE_DESIGN { 1 0 10303 214 3 1 1 1 }'));
ENDSEC;

DATA;
#10=CONSTRUCTIVE_GEOMETRY_REPRESENTATION_RELATIONSHIP(
'supplemental geometry','',#26,#11);
#11=CONSTRUCTIVE_GEOMETRY_REPRESENTATION('supplemental geometry',(#255,
#256,#257),#429);
#12=GEOMETRICALLY_BOUNDED_WIREFRAME_SHAPE_REPRESENTATION('Tool-None',(#27),
#429);
#13=SHAPE_REPRESENTATION_RELATIONSHIP('None',
'relationship between Tool-None and Tool-None',#26,#15);
#14=SHAPE_REPRESENTATION_RELATIONSHIP('None',
'relationship between Tool-None and Tool-None',#26,#12);
#15=ADVANCED_BREP_SHAPE_REPRESENTATION('Tool-None',(#38,#39),#429);
#16=SHAPE_DEFINITION_REPRESENTATION(#17,#26);
#17=PRODUCT_DEFINITION_SHAPE('','',#18);
#18=PRODUCT_DEFINITION(' ','',#20,#19);
#19=PRODUCT_DEFINITION_CONTEXT('part definition',#25,'design');
#20=PRODUCT_DEFINITION_FORMATION_WITH_SPECIFIED_SOURCE(' ',' ',#22,
 .NOT_KNOWN.);
#21=PRODUCT_RELATED_PRODUCT_CATEGORY('part','',(#22));
#22=PRODUCT('Tool','Tool',' ',(#23));
#23=PRODUCT_CONTEXT(' ',#25,'mechanical');
#24=APPLICATION_PROTOCOL_DEFINITION('international standard',
'automotive_design',2010,#25);
#25=APPLICATION_CONTEXT(
'core data for automotive mechanical design processes');
#26=SHAPE_REPRESENTATION('Tool-None',(#254),#429);
#27=GEOMETRIC_CURVE_SET('None',(#358,#359,#360,#221));
#28=SURFACE_STYLE_USAGE(.BOTH.,#30);
#29=SURFACE_STYLE_USAGE(.BOTH.,#31);
#30=SURFACE_SIDE_STYLE('',(#32));
#31=SURFACE_SIDE_STYLE('',(#33));
#32=SURFACE_STYLE_FILL_AREA(#34);
#33=SURFACE_STYLE_FILL_AREA(#35);
#34=FILL_AREA_STYLE('',(#36));
#35=FILL_AREA_STYLE('',(#37));
#36=FILL_AREA_STYLE_COLOUR('',#252);
#37=FILL_AREA_STYLE_COLOUR('',#253);
#38=MANIFOLD_SOLID_BREP('NOCUT',#40);
#39=MANIFOLD_SOLID_BREP('CUT',#41);
#40=CLOSED_SHELL('',(#62,#63,#64,#65,#66,#67,#68,#69,#70,#71,#72,#73));
#41=CLOSED_SHELL('',(#74,#75,#76,#77));
#42=PLANE('',#274);
#43=PLANE('',#276);
#44=PLANE('',#277);
#45=PLANE('',#278);
#46=PLANE('',#279);
#47=PLANE('',#281);
#48=PLANE('',#283);
#49=FACE_OUTER_BOUND('',#123,.T.);
#50=FACE_OUTER_BOUND('',#126,.T.);
#51=FACE_OUTER_BOUND('',#127,.T.);
#52=FACE_OUTER_BOUND('',#128,.T.);
#53=FACE_OUTER_BOUND('',#129,.T.);
#54=FACE_OUTER_BOUND('',#130,.T.);
#55=FACE_OUTER_BOUND('',#131,.T.);
#56=TOROIDAL_SURFACE('',#271,10.6,1.);
#57=TOROIDAL_SURFACE('',#272,10.6,1.);
#58=TOROIDAL_SURFACE('',#286,7.00000000000001,3.);
#59=CONICAL_SURFACE('',#264,9.6,30.0000000000002);
#60=CONICAL_SURFACE('',#267,10.,29.9999999999994);
#61=CONICAL_SURFACE('',#275,9.,45.0000000000001);
#62=ADVANCED_FACE('',(#91,#92,#93),#78,.T.);
#63=ADVANCED_FACE('',(#94,#95),#59,.T.);
#64=ADVANCED_FACE('',(#96,#97),#60,.T.);
#65=ADVANCED_FACE('',(#98,#99),#79,.T.);
#66=ADVANCED_FACE('',(#100,#101),#56,.F.);
#67=ADVANCED_FACE('',(#102,#103),#57,.F.);
#68=ADVANCED_FACE('',(#49),#42,.F.);
#69=ADVANCED_FACE('',(#104,#105),#61,.T.);
#70=ADVANCED_FACE('',(#50),#43,.T.);
#71=ADVANCED_FACE('',(#51),#44,.T.);
#72=ADVANCED_FACE('',(#52),#45,.T.);
#73=ADVANCED_FACE('',(#53),#46,.T.);
#74=ADVANCED_FACE('',(#54),#47,.T.);
#75=ADVANCED_FACE('',(#55),#48,.F.);
#76=ADVANCED_FACE('',(#106,#107),#80,.T.);
#77=ADVANCED_FACE('',(#108,#109),#58,.T.);
#78=CYLINDRICAL_SURFACE('',#262,10.);
#79=CYLINDRICAL_SURFACE('',#270,9.6);
#80=CYLINDRICAL_SURFACE('',#285,10.);
#81=LINE('',#387,#85);
#82=LINE('',#391,#86);
#83=LINE('',#412,#87);
#84=LINE('',#414,#88);
#85=VECTOR('',#301,1.);
#86=VECTOR('',#304,1.);
#87=VECTOR('',#333,1.);
#88=VECTOR('',#336,1.);
#89=ELLIPSE('',#260,14.1421356237309,10.);
#90=ELLIPSE('',#261,14.142135623731,10.);
#91=FACE_BOUND('',#110,.T.);
#92=FACE_BOUND('',#111,.T.);
#93=FACE_BOUND('',#112,.T.);
#94=FACE_BOUND('',#113,.T.);
#95=FACE_BOUND('',#114,.T.);
#96=FACE_BOUND('',#115,.T.);
#97=FACE_BOUND('',#116,.T.);
#98=FACE_BOUND('',#117,.T.);
#99=FACE_BOUND('',#118,.T.);
#100=FACE_BOUND('',#119,.T.);
#101=FACE_BOUND('',#120,.T.);
#102=FACE_BOUND('',#121,.T.);
#103=FACE_BOUND('',#122,.T.);
#104=FACE_BOUND('',#124,.T.);
#105=FACE_BOUND('',#125,.T.);
#106=FACE_BOUND('',#132,.T.);
#107=FACE_BOUND('',#133,.T.);
#108=FACE_BOUND('',#134,.T.);
#109=FACE_BOUND('',#135,.T.);
#110=EDGE_LOOP('',(#136));
#111=EDGE_LOOP('',(#137));
#112=EDGE_LOOP('',(#138,#139,#140,#141));
#113=EDGE_LOOP('',(#142));
#114=EDGE_LOOP('',(#143));
#115=EDGE_LOOP('',(#144));
#116=EDGE_LOOP('',(#145));
#117=EDGE_LOOP('',(#146));
#118=EDGE_LOOP('',(#147));
#119=EDGE_LOOP('',(#148));
#120=EDGE_LOOP('',(#149));
#121=EDGE_LOOP('',(#150));
#122=EDGE_LOOP('',(#151));
#123=EDGE_LOOP('',(#152));
#124=EDGE_LOOP('',(#153));
#125=EDGE_LOOP('',(#154));
#126=EDGE_LOOP('',(#155,#156));
#127=EDGE_LOOP('',(#157,#158,#159,#160));
#128=EDGE_LOOP('',(#161,#162));
#129=EDGE_LOOP('',(#163));
#130=EDGE_LOOP('',(#164));
#131=EDGE_LOOP('',(#165));
#132=EDGE_LOOP('',(#166));
#133=EDGE_LOOP('',(#167));
#134=EDGE_LOOP('',(#168));
#135=EDGE_LOOP('',(#169));
#136=ORIENTED_EDGE('',*,*,#185,.T.);
#137=ORIENTED_EDGE('',*,*,#186,.T.);
#138=ORIENTED_EDGE('',*,*,#187,.F.);
#139=ORIENTED_EDGE('',*,*,#188,.F.);
#140=ORIENTED_EDGE('',*,*,#189,.F.);
#141=ORIENTED_EDGE('',*,*,#190,.F.);
#142=ORIENTED_EDGE('',*,*,#191,.T.);
#143=ORIENTED_EDGE('',*,*,#185,.F.);
#144=ORIENTED_EDGE('',*,*,#192,.T.);
#145=ORIENTED_EDGE('',*,*,#193,.F.);
#146=ORIENTED_EDGE('',*,*,#194,.T.);
#147=ORIENTED_EDGE('',*,*,#195,.T.);
#148=ORIENTED_EDGE('',*,*,#195,.F.);
#149=ORIENTED_EDGE('',*,*,#191,.F.);
#150=ORIENTED_EDGE('',*,*,#192,.F.);
#151=ORIENTED_EDGE('',*,*,#194,.F.);
#152=ORIENTED_EDGE('',*,*,#196,.T.);
#153=ORIENTED_EDGE('',*,*,#186,.F.);
#154=ORIENTED_EDGE('',*,*,#196,.F.);
#155=ORIENTED_EDGE('',*,*,#187,.T.);
#156=ORIENTED_EDGE('',*,*,#197,.F.);
#157=ORIENTED_EDGE('',*,*,#188,.T.);
#158=ORIENTED_EDGE('',*,*,#197,.T.);
#159=ORIENTED_EDGE('',*,*,#190,.T.);
#160=ORIENTED_EDGE('',*,*,#198,.F.);
#161=ORIENTED_EDGE('',*,*,#189,.T.);
#162=ORIENTED_EDGE('',*,*,#198,.T.);
#163=ORIENTED_EDGE('',*,*,#193,.T.);
#164=ORIENTED_EDGE('',*,*,#199,.T.);
#165=ORIENTED_EDGE('',*,*,#200,.T.);
#166=ORIENTED_EDGE('',*,*,#201,.T.);
#167=ORIENTED_EDGE('',*,*,#199,.F.);
#168=ORIENTED_EDGE('',*,*,#200,.F.);
#169=ORIENTED_EDGE('',*,*,#201,.F.);
#170=VERTEX_POINT('',#381);
#171=VERTEX_POINT('',#383);
#172=VERTEX_POINT('',#385);
#173=VERTEX_POINT('',#386);
#174=VERTEX_POINT('',#388);
#175=VERTEX_POINT('',#390);
#176=VERTEX_POINT('',#394);
#177=VERTEX_POINT('',#397);
#178=VERTEX_POINT('',#399);
#179=VERTEX_POINT('',#402);
#180=VERTEX_POINT('',#404);
#181=VERTEX_POINT('',#409);
#182=VERTEX_POINT('',#419);
#183=VERTEX_POINT('',#422);
#184=VERTEX_POINT('',#425);
#185=EDGE_CURVE('',#170,#170,#202,.T.);
#186=EDGE_CURVE('',#171,#171,#203,.T.);
#187=EDGE_CURVE('',#172,#173,#89,.T.);
#188=EDGE_CURVE('',#174,#172,#81,.T.);
#189=EDGE_CURVE('',#175,#174,#90,.T.);
#190=EDGE_CURVE('',#173,#175,#82,.T.);
#191=EDGE_CURVE('',#176,#176,#204,.T.);
#192=EDGE_CURVE('',#177,#177,#205,.T.);
#193=EDGE_CURVE('',#178,#178,#206,.T.);
#194=EDGE_CURVE('',#179,#179,#207,.T.);
#195=EDGE_CURVE('',#180,#180,#208,.T.);
#196=EDGE_CURVE('',#181,#181,#209,.T.);
#197=EDGE_CURVE('',#172,#173,#83,.T.);
#198=EDGE_CURVE('',#174,#175,#84,.T.);
#199=EDGE_CURVE('',#182,#182,#210,.T.);
#200=EDGE_CURVE('',#183,#183,#211,.T.);
#201=EDGE_CURVE('',#184,#184,#212,.T.);
#202=CIRCLE('',#258,10.);
#203=CIRCLE('',#259,10.);
#204=CIRCLE('',#263,9.73397459621556);
#205=CIRCLE('',#265,9.73397459621555);
#206=CIRCLE('',#266,10.);
#207=CIRCLE('',#268,9.6);
#208=CIRCLE('',#269,9.6);
#209=CIRCLE('',#273,9.);
#210=CIRCLE('',#280,10.);
#211=CIRCLE('',#282,7.00000000000001);
#212=CIRCLE('',#284,10.);
#213=CURVE_STYLE('',#217,POSITIVE_LENGTH_MEASURE(0.18),#224);
#214=CURVE_STYLE('',#218,POSITIVE_LENGTH_MEASURE(0.13),#251);
#215=CURVE_STYLE('',#219,POSITIVE_LENGTH_MEASURE(0.18),#250);
#216=CURVE_STYLE('',#220,POSITIVE_LENGTH_MEASURE(0.18),#250);
#217=DRAUGHTING_PRE_DEFINED_CURVE_FONT('continuous');
#218=DRAUGHTING_PRE_DEFINED_CURVE_FONT('continuous');
#219=DRAUGHTING_PRE_DEFINED_CURVE_FONT('continuous');
#220=DRAUGHTING_PRE_DEFINED_CURVE_FONT('continuous');
#221=TRIMMED_CURVE('CUTTING PART LINE',#222,(PARAMETER_VALUE(0.)),(
PARAMETER_VALUE(1.)),.T.,.PARAMETER.);
#222=(
BOUNDED_CURVE()
B_SPLINE_CURVE(3,(#361,#362,#363,#364,#365,#366,#367,#368,#369,#370,#371,
#372,#373,#374,#375,#376),.UNSPECIFIED.,.T.,.F.)
B_SPLINE_CURVE_WITH_KNOTS((1,3,3,3,3,3,3,1),(-0.0296913745082047,0.,0.422147259142452,
0.485154312745898,0.926203687969384,0.970308625491795,1.,1.42214725914245),
 .UNSPECIFIED.)
CURVE()
GEOMETRIC_REPRESENTATION_ITEM()
RATIONAL_B_SPLINE_CURVE((1.,1.,1.,1.,1.,1.,1.,1.,1.,1.,1.,1.,1.,0.804737854124365,
0.804737854124365,1.))
REPRESENTATION_ITEM('CUTTING PART LINE')
);
#223=DRAUGHTING_PRE_DEFINED_COLOUR('white');
#224=DRAUGHTING_PRE_DEFINED_COLOUR('blue');
#225=PRESENTATION_LAYER_ASSIGNMENT('1','Layer 1',(#358,#359,#360,#221,#255,
#256,#257,#38,#39));
#226=STYLED_ITEM('',(#235),#358);
#227=STYLED_ITEM('',(#236),#359);
#228=STYLED_ITEM('',(#237),#360);
#229=STYLED_ITEM('',(#238),#221);
#230=STYLED_ITEM('',(#239),#255);
#231=STYLED_ITEM('',(#240),#256);
#232=STYLED_ITEM('',(#241),#257);
#233=STYLED_ITEM('',(#242),#38);
#234=STYLED_ITEM('',(#243),#39);
#235=PRESENTATION_STYLE_ASSIGNMENT((#244));
#236=PRESENTATION_STYLE_ASSIGNMENT((#245));
#237=PRESENTATION_STYLE_ASSIGNMENT((#246));
#238=PRESENTATION_STYLE_ASSIGNMENT((#213));
#239=PRESENTATION_STYLE_ASSIGNMENT((#214));
#240=PRESENTATION_STYLE_ASSIGNMENT((#215));
#241=PRESENTATION_STYLE_ASSIGNMENT((#216));
#242=PRESENTATION_STYLE_ASSIGNMENT((#28));
#243=PRESENTATION_STYLE_ASSIGNMENT((#29));
#244=POINT_STYLE('',#247,POSITIVE_LENGTH_MEASURE(3.),#250);
#245=POINT_STYLE('',#248,POSITIVE_LENGTH_MEASURE(3.),#223);
#246=POINT_STYLE('',#249,POSITIVE_LENGTH_MEASURE(3.),#250);
#247=PRE_DEFINED_POINT_MARKER_SYMBOL('plus');
#248=PRE_DEFINED_POINT_MARKER_SYMBOL('plus');
#249=PRE_DEFINED_POINT_MARKER_SYMBOL('plus');
#250=COLOUR_RGB('Medium Maroon',0.6,0.4,0.4);
#251=COLOUR_RGB('Silver Gray',0.6,0.6,0.6);
#252=COLOUR_RGB('TLS_NOCUT',0.498023956664378,0.498023956664378,0.498023956664378);
#253=COLOUR_RGB('TLS_CUT',0.8,0.8,0.8);
#254=AXIS2_PLACEMENT_3D('',#357,#287,#288);
#255=AXIS2_PLACEMENT_3D('PCS',#377,#289,#290);
#256=AXIS2_PLACEMENT_3D('MCS',#378,#291,#292);
#257=AXIS2_PLACEMENT_3D('CIP',#379,#293,#294);
#258=AXIS2_PLACEMENT_3D('',#380,#295,#296);
#259=AXIS2_PLACEMENT_3D('',#382,#297,#298);
#260=AXIS2_PLACEMENT_3D('',#384,#299,#300);
#261=AXIS2_PLACEMENT_3D('',#389,#302,#303);
#262=AXIS2_PLACEMENT_3D('',#392,#305,#306);
#263=AXIS2_PLACEMENT_3D('',#393,#307,#308);
#264=AXIS2_PLACEMENT_3D('',#395,#309,#310);
#265=AXIS2_PLACEMENT_3D('',#396,#311,#312);
#266=AXIS2_PLACEMENT_3D('',#398,#313,#314);
#267=AXIS2_PLACEMENT_3D('',#400,#315,#316);
#268=AXIS2_PLACEMENT_3D('',#401,#317,#318);
#269=AXIS2_PLACEMENT_3D('',#403,#319,#320);
#270=AXIS2_PLACEMENT_3D('',#405,#321,#322);
#271=AXIS2_PLACEMENT_3D('',#406,#323,#324);
#272=AXIS2_PLACEMENT_3D('',#407,#325,#326);
#273=AXIS2_PLACEMENT_3D('',#408,#327,#328);
#274=AXIS2_PLACEMENT_3D('',#410,#329,#330);
#275=AXIS2_PLACEMENT_3D('',#411,#331,#332);
#276=AXIS2_PLACEMENT_3D('',#413,#334,#335);
#277=AXIS2_PLACEMENT_3D('',#415,#337,#338);
#278=AXIS2_PLACEMENT_3D('',#416,#339,#340);
#279=AXIS2_PLACEMENT_3D('',#417,#341,#342);
#280=AXIS2_PLACEMENT_3D('',#418,#343,#344);
#281=AXIS2_PLACEMENT_3D('',#420,#345,#346);
#282=AXIS2_PLACEMENT_3D('',#421,#347,#348);
#283=AXIS2_PLACEMENT_3D('',#423,#349,#350);
#284=AXIS2_PLACEMENT_3D('',#424,#351,#352);
#285=AXIS2_PLACEMENT_3D('',#426,#353,#354);
#286=AXIS2_PLACEMENT_3D('',#427,#355,#356);
#287=DIRECTION('',(0.,0.,1.));
#288=DIRECTION('',(1.,0.,0.));
#289=DIRECTION('',(0.,0.,1.));
#290=DIRECTION('',(1.,0.,0.));
#291=DIRECTION('',(0.,0.,1.));
#292=DIRECTION('',(1.,0.,0.));
#293=DIRECTION('',(0.,0.,1.));
#294=DIRECTION('',(1.,0.,0.));
#295=DIRECTION('',(0.,0.,1.));
#296=DIRECTION('',(1.,0.,0.));
#297=DIRECTION('',(0.,0.,-1.));
#298=DIRECTION('',(-1.,0.,0.));
#299=DIRECTION('',(0.,0.707106781186547,-0.707106781186549));
#300=DIRECTION('',(0.,0.707106781186549,0.707106781186547));
#301=DIRECTION('',(0.,0.,1.));
#302=DIRECTION('',(0.,0.707106781186549,0.707106781186546));
#303=DIRECTION('',(0.,-0.707106781186546,0.707106781186549));
#304=DIRECTION('',(0.,0.,-1.));
#305=DIRECTION('',(0.,0.,1.));
#306=DIRECTION('',(1.,0.,0.));
#307=DIRECTION('',(0.,0.,1.));
#308=DIRECTION('',(1.,0.,0.));
#309=DIRECTION('',(0.,0.,1.));
#310=DIRECTION('',(1.,0.,-2.36438903537343E-17));
#311=DIRECTION('',(0.,0.,-1.));
#312=DIRECTION('',(-1.,0.,0.));
#313=DIRECTION('',(0.,0.,-1.));
#314=DIRECTION('',(-1.,0.,0.));
#315=DIRECTION('',(0.,0.,-1.));
#316=DIRECTION('',(-1.,0.,-2.36277882820453E-17));
#317=DIRECTION('',(0.,0.,1.));
#318=DIRECTION('',(1.,0.,0.));
#319=DIRECTION('',(0.,0.,-1.));
#320=DIRECTION('',(1.,0.,0.));
#321=DIRECTION('',(0.,0.,1.));
#322=DIRECTION('',(1.,0.,0.));
#323=DIRECTION('',(0.,0.,1.));
#324=DIRECTION('',(1.,0.,0.));
#325=DIRECTION('',(0.,0.,1.));
#326=DIRECTION('',(1.,0.,0.));
#327=DIRECTION('',(0.,0.,1.));
#328=DIRECTION('',(-1.,0.,0.));
#329=DIRECTION('',(0.,0.,-1.));
#330=DIRECTION('',(-1.,0.,0.));
#331=DIRECTION('',(0.,0.,-1.));
#332=DIRECTION('',(-1.,0.,0.));
#333=DIRECTION('',(1.,0.,0.));
#334=DIRECTION('',(0.,0.707106781186547,-0.707106781186549));
#335=DIRECTION('',(0.,-0.707106781186549,-0.707106781186547));
#336=DIRECTION('',(1.,0.,0.));
#337=DIRECTION('',(0.,1.,-1.5770213417971E-16));
#338=DIRECTION('',(0.,-1.57859836313889E-16,-1.));
#339=DIRECTION('',(0.,0.707106781186549,0.707106781186546));
#340=DIRECTION('',(0.,0.707106781186546,-0.707106781186549));
#341=DIRECTION('',(0.,0.,-1.));
#342=DIRECTION('',(-1.,0.,0.));
#343=DIRECTION('',(0.,0.,1.));
#344=DIRECTION('',(1.,0.,0.));
#345=DIRECTION('',(0.,0.,1.));
#346=DIRECTION('',(1.,0.,0.));
#347=DIRECTION('',(0.,0.,-1.));
#348=DIRECTION('',(1.,0.,0.));
#349=DIRECTION('',(0.,0.,1.));
#350=DIRECTION('',(1.,0.,0.));
#351=DIRECTION('',(0.,0.,1.));
#352=DIRECTION('',(1.,0.,0.));
#353=DIRECTION('',(0.,0.,1.));
#354=DIRECTION('',(1.,0.,0.));
#355=DIRECTION('',(0.,0.,1.));
#356=DIRECTION('',(1.,0.,0.));
#357=CARTESIAN_POINT('',(0.,0.,0.));
#358=CARTESIAN_POINT('',(0.,0.,-50.));
#359=CARTESIAN_POINT('CRP',(-10.,0.,-142.));
#360=CARTESIAN_POINT('CIP_DCSYS',(0.,0.,-142.));
#361=CARTESIAN_POINT('',(-10.,0.,-139.));
#362=CARTESIAN_POINT('',(-10.,0.,-116.666666666667));
#363=CARTESIAN_POINT('',(-10.,0.,-94.3333333333334));
#364=CARTESIAN_POINT('',(-10.,0.,-72.0000000000001));
#365=CARTESIAN_POINT('',(-6.66666666666667,0.,-72.0000000000001));
#366=CARTESIAN_POINT('',(-3.33333333333334,0.,-72.0000000000001));
#367=CARTESIAN_POINT('',(0.,0.,-72.0000000000001));
#368=CARTESIAN_POINT('',(0.,0.,-95.3333333333334));
#369=CARTESIAN_POINT('',(0.,0.,-118.666666666667));
#370=CARTESIAN_POINT('',(0.,0.,-142.));
#371=CARTESIAN_POINT('',(-2.33333333333334,0.,-142.));
#372=CARTESIAN_POINT('',(-4.66666666666667,0.,-142.));
#373=CARTESIAN_POINT('',(-7.00000000000001,0.,-142.));
#374=CARTESIAN_POINT('',(-8.75735931288072,0.,-142.));
#375=CARTESIAN_POINT('',(-10.,0.,-140.757359312881));
#376=CARTESIAN_POINT('',(-10.,0.,-139.));
#377=CARTESIAN_POINT('',(0.,0.,0.));
#378=CARTESIAN_POINT('',(0.,0.,-50.));
#379=CARTESIAN_POINT('',(0.,0.,-142.));
#380=CARTESIAN_POINT('',(0.,0.,-51.0369094067022));
#381=CARTESIAN_POINT('',(10.,0.,-51.0369094067022));
#382=CARTESIAN_POINT('',(0.,0.,-0.999999999999997));
#383=CARTESIAN_POINT('',(-10.,0.,-0.999999999999997));
#384=CARTESIAN_POINT('',(0.,0.,-27.7));
#385=CARTESIAN_POINT('',(-5.72363520850167,8.2,-19.5));
#386=CARTESIAN_POINT('',(5.72363520850167,8.2,-19.5));
#387=CARTESIAN_POINT('',(-5.72363520850167,8.2,20.9080749503476));
#388=CARTESIAN_POINT('',(-5.72363520850167,8.19999999999999,-30.5));
#389=CARTESIAN_POINT('',(0.,0.,-22.2999999999999));
#390=CARTESIAN_POINT('',(5.72363520850167,8.19999999999999,-30.5));
#391=CARTESIAN_POINT('',(5.72363520850167,8.2,20.9080749503476));
#392=CARTESIAN_POINT('',(0.,0.,20.9080749503476));
#393=CARTESIAN_POINT('',(0.,0.,-51.4976789221609));
#394=CARTESIAN_POINT('',(9.73397459621556,0.,-51.4976789221609));
#395=CARTESIAN_POINT('',(0.,0.,-51.7297297297298));
#396=CARTESIAN_POINT('',(0.,0.,-71.5392304845413));
#397=CARTESIAN_POINT('',(-9.73397459621555,0.,-71.5392304845413));
#398=CARTESIAN_POINT('',(0.,0.,-72.0000000000001));
#399=CARTESIAN_POINT('',(-10.,0.,-72.0000000000001));
#400=CARTESIAN_POINT('',(0.,0.,-72.0000000000001));
#401=CARTESIAN_POINT('',(0.,0.,-71.0392304845414));
#402=CARTESIAN_POINT('',(9.6,0.,-71.0392304845414));
#403=CARTESIAN_POINT('',(0.,0.,-51.9976789221609));
#404=CARTESIAN_POINT('',(9.6,0.,-51.9976789221609));
#405=CARTESIAN_POINT('',(0.,0.,0.));
#406=CARTESIAN_POINT('',(0.,0.,-51.9976789221609));
#407=CARTESIAN_POINT('',(0.,0.,-71.0392304845414));
#408=CARTESIAN_POINT('',(0.,0.,0.));
#409=CARTESIAN_POINT('',(-9.,0.,0.));
#410=CARTESIAN_POINT('',(0.,10.,0.));
#411=CARTESIAN_POINT('',(0.,0.,0.));
#412=CARTESIAN_POINT('',(10.,8.2,-19.5));
#413=CARTESIAN_POINT('',(10.,10.,-17.7));
#414=CARTESIAN_POINT('',(10.,8.19999999999999,-30.5));
#415=CARTESIAN_POINT('',(10.,8.2,-19.5));
#416=CARTESIAN_POINT('',(10.,10.,-32.3));
#417=CARTESIAN_POINT('',(0.,0.,-72.0000000000001));
#418=CARTESIAN_POINT('',(0.,0.,-72.0000000000001));
#419=CARTESIAN_POINT('',(10.,0.,-72.0000000000001));
#420=CARTESIAN_POINT('',(0.,0.,-72.0000000000001));
#421=CARTESIAN_POINT('',(0.,0.,-142.));
#422=CARTESIAN_POINT('',(7.00000000000001,0.,-142.));
#423=CARTESIAN_POINT('',(0.,0.,-142.));
#424=CARTESIAN_POINT('',(0.,0.,-139.));
#425=CARTESIAN_POINT('',(10.,0.,-139.));
#426=CARTESIAN_POINT('',(0.,0.,0.));
#427=CARTESIAN_POINT('',(0.,0.,-139.));
#428=MECHANICAL_DESIGN_GEOMETRIC_PRESENTATION_REPRESENTATION('',(#226,#227,
#228,#229,#230,#231,#232,#233,#234),#429);
#429=(
GEOMETRIC_REPRESENTATION_CONTEXT(3)
GLOBAL_UNCERTAINTY_ASSIGNED_CONTEXT((#430))
GLOBAL_UNIT_ASSIGNED_CONTEXT((#436,#432,#431))
REPRESENTATION_CONTEXT('TOOL','TOP_LEVEL_ASSEMBLY_PART')
);
#430=UNCERTAINTY_MEASURE_WITH_UNIT(LENGTH_MEASURE(2.E-5),#436,
'DISTANCE_ACCURACY_VALUE','Maximum Tolerance applied to model');
#431=(
NAMED_UNIT(*)
SI_UNIT($,.STERADIAN.)
SOLID_ANGLE_UNIT()
);
#432=(
CONVERSION_BASED_UNIT('DEGREE',#434)
NAMED_UNIT(#433)
PLANE_ANGLE_UNIT()
);
#433=DIMENSIONAL_EXPONENTS(0.,0.,0.,0.,0.,0.,0.);
#434=PLANE_ANGLE_MEASURE_WITH_UNIT(PLANE_ANGLE_MEASURE(0.0174532925),#435);
#435=(
NAMED_UNIT(*)
PLANE_ANGLE_UNIT()
SI_UNIT($,.RADIAN.)
);
#436=(
LENGTH_UNIT()
NAMED_UNIT(*)
SI_UNIT(.MILLI.,.METRE.)
);
ENDSEC;
END-ISO-10303-21;
