ISO-10303-21;
HEADER;
/* Generated by software containing ST-Developer
 * from STEP Tools, Inc. (www.steptools.com) 
 */
/* OPTION: using custom schema-name function */

FILE_DESCRIPTION(
/* description */ (''),
/* implementation_level */ '2;1');

FILE_NAME(
/* name */ 'TOOL.STP',
/* time_stamp */ '2023-03-20T04:27:52+01:00',
/* author */ (''),
/* organization */ ('SMS'),
/* preprocessor_version */ 'ST-DEVELOPER v16.7',
/* originating_system */ 'SIEMENS PLM Software NX 12.0',
/* authorisation */ '');

FILE_SCHEMA (('AUTOMOTIVE_DESIGN { 1 0 10303 214 3 1 1 1 }'));
ENDSEC;

DATA;
#10=CONSTRUCTIVE_GEOMETRY_REPRESENTATION_RELATIONSHIP(
'supplemental geometry','',#26,#11);
#11=CONSTRUCTIVE_GEOMETRY_REPRESENTATION('supplemental geometry',(#232,
#233,#234),#388);
#12=GEOMETRICALLY_BOUNDED_WIREFRAME_SHAPE_REPRESENTATION('Tool-None',(#27),
#388);
#13=SHAPE_REPRESENTATION_RELATIONSHIP('None',
'relationship between Tool-None and Tool-None',#26,#15);
#14=SHAPE_REPRESENTATION_RELATIONSHIP('None',
'relationship between Tool-None and Tool-None',#26,#12);
#15=ADVANCED_BREP_SHAPE_REPRESENTATION('Tool-None',(#38,#39),#388);
#16=SHAPE_DEFINITION_REPRESENTATION(#17,#26);
#17=PRODUCT_DEFINITION_SHAPE('','',#18);
#18=PRODUCT_DEFINITION(' ','',#20,#19);
#19=PRODUCT_DEFINITION_CONTEXT('part definition',#25,'design');
#20=PRODUCT_DEFINITION_FORMATION_WITH_SPECIFIED_SOURCE(' ',' ',#22,
 .NOT_KNOWN.);
#21=PRODUCT_RELATED_PRODUCT_CATEGORY('part','',(#22));
#22=PRODUCT('Tool','Tool',' ',(#23));
#23=PRODUCT_CONTEXT(' ',#25,'mechanical');
#24=APPLICATION_PROTOCOL_DEFINITION('international standard',
'automotive_design',2010,#25);
#25=APPLICATION_CONTEXT(
'core data for automotive mechanical design processes');
#26=SHAPE_REPRESENTATION('Tool-None',(#231),#388);
#27=GEOMETRIC_CURVE_SET('None',(#323,#324,#325,#199));
#28=SURFACE_STYLE_USAGE(.BOTH.,#30);
#29=SURFACE_STYLE_USAGE(.BOTH.,#31);
#30=SURFACE_SIDE_STYLE('',(#32));
#31=SURFACE_SIDE_STYLE('',(#33));
#32=SURFACE_STYLE_FILL_AREA(#34);
#33=SURFACE_STYLE_FILL_AREA(#35);
#34=FILL_AREA_STYLE('',(#36));
#35=FILL_AREA_STYLE('',(#37));
#36=FILL_AREA_STYLE_COLOUR('',#229);
#37=FILL_AREA_STYLE_COLOUR('',#230);
#38=MANIFOLD_SOLID_BREP('NOCUT',#40);
#39=MANIFOLD_SOLID_BREP('CUT',#41);
#40=CLOSED_SHELL('',(#70,#71,#72,#73,#74,#75,#76,#77,#78,#79));
#41=CLOSED_SHELL('',(#80,#81,#82,#83));
#42=PLANE('',#247);
#43=PLANE('',#249);
#44=PLANE('',#250);
#45=PLANE('',#251);
#46=PLANE('',#252);
#47=PLANE('',#254);
#48=PLANE('',#259);
#49=FACE_OUTER_BOUND('',#111,.T.);
#50=FACE_OUTER_BOUND('',#114,.T.);
#51=FACE_OUTER_BOUND('',#115,.T.);
#52=FACE_OUTER_BOUND('',#116,.T.);
#53=FACE_OUTER_BOUND('',#117,.T.);
#54=FACE_OUTER_BOUND('',#118,.T.);
#55=FACE_OUTER_BOUND('',#123,.T.);
#56=TOROIDAL_SURFACE('',#245,5.85,1.);
#57=CONICAL_SURFACE('',#244,4.85,30.);
#58=CONICAL_SURFACE('',#248,4.4,45.);
#59=CONICAL_SURFACE('',#258,4.85,44.9999999999991);
#60=LINE('',#357,#64);
#61=LINE('',#361,#65);
#62=LINE('',#371,#66);
#63=LINE('',#373,#67);
#64=VECTOR('',#280,1.);
#65=VECTOR('',#283,1.);
#66=VECTOR('',#298,1.);
#67=VECTOR('',#301,1.);
#68=ELLIPSE('',#240,7.07106781186548,5.);
#69=ELLIPSE('',#241,7.07106781186548,5.);
#70=ADVANCED_FACE('',(#87,#88),#84,.T.);
#71=ADVANCED_FACE('',(#89,#90,#91),#85,.T.);
#72=ADVANCED_FACE('',(#92,#93),#57,.T.);
#73=ADVANCED_FACE('',(#94,#95),#56,.F.);
#74=ADVANCED_FACE('',(#49),#42,.F.);
#75=ADVANCED_FACE('',(#96,#97),#58,.T.);
#76=ADVANCED_FACE('',(#50),#43,.T.);
#77=ADVANCED_FACE('',(#51),#44,.T.);
#78=ADVANCED_FACE('',(#52),#45,.T.);
#79=ADVANCED_FACE('',(#53),#46,.T.);
#80=ADVANCED_FACE('',(#54),#47,.T.);
#81=ADVANCED_FACE('',(#98,#99),#86,.T.);
#82=ADVANCED_FACE('',(#100,#101),#59,.T.);
#83=ADVANCED_FACE('',(#55),#48,.F.);
#84=CYLINDRICAL_SURFACE('',#237,4.85);
#85=CYLINDRICAL_SURFACE('',#242,5.);
#86=CYLINDRICAL_SURFACE('',#256,4.85);
#87=FACE_BOUND('',#102,.T.);
#88=FACE_BOUND('',#103,.T.);
#89=FACE_BOUND('',#104,.T.);
#90=FACE_BOUND('',#105,.T.);
#91=FACE_BOUND('',#106,.T.);
#92=FACE_BOUND('',#107,.T.);
#93=FACE_BOUND('',#108,.T.);
#94=FACE_BOUND('',#109,.T.);
#95=FACE_BOUND('',#110,.T.);
#96=FACE_BOUND('',#112,.T.);
#97=FACE_BOUND('',#113,.T.);
#98=FACE_BOUND('',#119,.T.);
#99=FACE_BOUND('',#120,.T.);
#100=FACE_BOUND('',#121,.T.);
#101=FACE_BOUND('',#122,.T.);
#102=EDGE_LOOP('',(#124));
#103=EDGE_LOOP('',(#125));
#104=EDGE_LOOP('',(#126));
#105=EDGE_LOOP('',(#127));
#106=EDGE_LOOP('',(#128,#129,#130,#131));
#107=EDGE_LOOP('',(#132));
#108=EDGE_LOOP('',(#133));
#109=EDGE_LOOP('',(#134));
#110=EDGE_LOOP('',(#135));
#111=EDGE_LOOP('',(#136));
#112=EDGE_LOOP('',(#137));
#113=EDGE_LOOP('',(#138));
#114=EDGE_LOOP('',(#139,#140));
#115=EDGE_LOOP('',(#141,#142,#143,#144));
#116=EDGE_LOOP('',(#145,#146));
#117=EDGE_LOOP('',(#147));
#118=EDGE_LOOP('',(#148));
#119=EDGE_LOOP('',(#149));
#120=EDGE_LOOP('',(#150));
#121=EDGE_LOOP('',(#151));
#122=EDGE_LOOP('',(#152));
#123=EDGE_LOOP('',(#153));
#124=ORIENTED_EDGE('',*,*,#167,.T.);
#125=ORIENTED_EDGE('',*,*,#168,.F.);
#126=ORIENTED_EDGE('',*,*,#169,.T.);
#127=ORIENTED_EDGE('',*,*,#170,.T.);
#128=ORIENTED_EDGE('',*,*,#171,.F.);
#129=ORIENTED_EDGE('',*,*,#172,.F.);
#130=ORIENTED_EDGE('',*,*,#173,.F.);
#131=ORIENTED_EDGE('',*,*,#174,.F.);
#132=ORIENTED_EDGE('',*,*,#175,.T.);
#133=ORIENTED_EDGE('',*,*,#169,.F.);
#134=ORIENTED_EDGE('',*,*,#167,.F.);
#135=ORIENTED_EDGE('',*,*,#175,.F.);
#136=ORIENTED_EDGE('',*,*,#176,.T.);
#137=ORIENTED_EDGE('',*,*,#170,.F.);
#138=ORIENTED_EDGE('',*,*,#176,.F.);
#139=ORIENTED_EDGE('',*,*,#171,.T.);
#140=ORIENTED_EDGE('',*,*,#177,.F.);
#141=ORIENTED_EDGE('',*,*,#172,.T.);
#142=ORIENTED_EDGE('',*,*,#177,.T.);
#143=ORIENTED_EDGE('',*,*,#174,.T.);
#144=ORIENTED_EDGE('',*,*,#178,.F.);
#145=ORIENTED_EDGE('',*,*,#173,.T.);
#146=ORIENTED_EDGE('',*,*,#178,.T.);
#147=ORIENTED_EDGE('',*,*,#168,.T.);
#148=ORIENTED_EDGE('',*,*,#179,.T.);
#149=ORIENTED_EDGE('',*,*,#180,.T.);
#150=ORIENTED_EDGE('',*,*,#179,.F.);
#151=ORIENTED_EDGE('',*,*,#181,.T.);
#152=ORIENTED_EDGE('',*,*,#180,.F.);
#153=ORIENTED_EDGE('',*,*,#181,.F.);
#154=VERTEX_POINT('',#346);
#155=VERTEX_POINT('',#348);
#156=VERTEX_POINT('',#351);
#157=VERTEX_POINT('',#353);
#158=VERTEX_POINT('',#355);
#159=VERTEX_POINT('',#356);
#160=VERTEX_POINT('',#358);
#161=VERTEX_POINT('',#360);
#162=VERTEX_POINT('',#364);
#163=VERTEX_POINT('',#368);
#164=VERTEX_POINT('',#378);
#165=VERTEX_POINT('',#381);
#166=VERTEX_POINT('',#384);
#167=EDGE_CURVE('',#154,#154,#182,.T.);
#168=EDGE_CURVE('',#155,#155,#183,.T.);
#169=EDGE_CURVE('',#156,#156,#184,.T.);
#170=EDGE_CURVE('',#157,#157,#185,.T.);
#171=EDGE_CURVE('',#158,#159,#68,.T.);
#172=EDGE_CURVE('',#160,#158,#60,.T.);
#173=EDGE_CURVE('',#161,#160,#69,.T.);
#174=EDGE_CURVE('',#159,#161,#61,.T.);
#175=EDGE_CURVE('',#162,#162,#186,.T.);
#176=EDGE_CURVE('',#163,#163,#187,.T.);
#177=EDGE_CURVE('',#158,#159,#62,.T.);
#178=EDGE_CURVE('',#160,#161,#63,.T.);
#179=EDGE_CURVE('',#164,#164,#188,.T.);
#180=EDGE_CURVE('',#165,#165,#189,.T.);
#181=EDGE_CURVE('',#166,#166,#190,.T.);
#182=CIRCLE('',#235,4.85);
#183=CIRCLE('',#236,4.85);
#184=CIRCLE('',#238,5.);
#185=CIRCLE('',#239,5.);
#186=CIRCLE('',#243,4.98397459621556);
#187=CIRCLE('',#246,4.4);
#188=CIRCLE('',#253,4.85);
#189=CIRCLE('',#255,4.85);
#190=CIRCLE('',#257,4.65);
#191=CURVE_STYLE('',#195,POSITIVE_LENGTH_MEASURE(0.18),#201);
#192=CURVE_STYLE('',#196,POSITIVE_LENGTH_MEASURE(0.13),#228);
#193=CURVE_STYLE('',#197,POSITIVE_LENGTH_MEASURE(0.18),#227);
#194=CURVE_STYLE('',#198,POSITIVE_LENGTH_MEASURE(0.18),#227);
#195=DRAUGHTING_PRE_DEFINED_CURVE_FONT('continuous');
#196=DRAUGHTING_PRE_DEFINED_CURVE_FONT('continuous');
#197=DRAUGHTING_PRE_DEFINED_CURVE_FONT('continuous');
#198=DRAUGHTING_PRE_DEFINED_CURVE_FONT('continuous');
#199=B_SPLINE_CURVE_WITH_KNOTS('CUTTING PART LINE',3,(#326,#327,#328,#329,
#330,#331,#332,#333,#334,#335,#336,#337,#338,#339,#340,#341),
 .UNSPECIFIED.,.T.,.F.,(4,3,3,3,3,4),(0.,0.327780131652452,0.495120514655728,
0.829801280662281,0.990241029314907,1.),.UNSPECIFIED.);
#200=DRAUGHTING_PRE_DEFINED_COLOUR('white');
#201=DRAUGHTING_PRE_DEFINED_COLOUR('blue');
#202=PRESENTATION_LAYER_ASSIGNMENT('1','Layer 1',(#323,#324,#325,#199,#232,
#233,#234,#38,#39));
#203=STYLED_ITEM('',(#212),#323);
#204=STYLED_ITEM('',(#213),#324);
#205=STYLED_ITEM('',(#214),#325);
#206=STYLED_ITEM('',(#215),#199);
#207=STYLED_ITEM('',(#216),#232);
#208=STYLED_ITEM('',(#217),#233);
#209=STYLED_ITEM('',(#218),#234);
#210=STYLED_ITEM('',(#219),#38);
#211=STYLED_ITEM('',(#220),#39);
#212=PRESENTATION_STYLE_ASSIGNMENT((#221));
#213=PRESENTATION_STYLE_ASSIGNMENT((#222));
#214=PRESENTATION_STYLE_ASSIGNMENT((#223));
#215=PRESENTATION_STYLE_ASSIGNMENT((#191));
#216=PRESENTATION_STYLE_ASSIGNMENT((#192));
#217=PRESENTATION_STYLE_ASSIGNMENT((#193));
#218=PRESENTATION_STYLE_ASSIGNMENT((#194));
#219=PRESENTATION_STYLE_ASSIGNMENT((#28));
#220=PRESENTATION_STYLE_ASSIGNMENT((#29));
#221=POINT_STYLE('',#224,POSITIVE_LENGTH_MEASURE(3.),#227);
#222=POINT_STYLE('',#225,POSITIVE_LENGTH_MEASURE(3.),#200);
#223=POINT_STYLE('',#226,POSITIVE_LENGTH_MEASURE(3.),#227);
#224=PRE_DEFINED_POINT_MARKER_SYMBOL('plus');
#225=PRE_DEFINED_POINT_MARKER_SYMBOL('plus');
#226=PRE_DEFINED_POINT_MARKER_SYMBOL('plus');
#227=COLOUR_RGB('Medium Maroon',0.6,0.4,0.4);
#228=COLOUR_RGB('Silver Gray',0.6,0.6,0.6);
#229=COLOUR_RGB('TLS_NOCUT',0.498023956664378,0.498023956664378,0.498023956664378);
#230=COLOUR_RGB('TLS_CUT',0.8,0.8,0.8);
#231=AXIS2_PLACEMENT_3D('',#322,#260,#261);
#232=AXIS2_PLACEMENT_3D('PCS',#342,#262,#263);
#233=AXIS2_PLACEMENT_3D('MCS',#343,#264,#265);
#234=AXIS2_PLACEMENT_3D('CIP',#344,#266,#267);
#235=AXIS2_PLACEMENT_3D('',#345,#268,#269);
#236=AXIS2_PLACEMENT_3D('',#347,#270,#271);
#237=AXIS2_PLACEMENT_3D('',#349,#272,#273);
#238=AXIS2_PLACEMENT_3D('',#350,#274,#275);
#239=AXIS2_PLACEMENT_3D('',#352,#276,#277);
#240=AXIS2_PLACEMENT_3D('',#354,#278,#279);
#241=AXIS2_PLACEMENT_3D('',#359,#281,#282);
#242=AXIS2_PLACEMENT_3D('',#362,#284,#285);
#243=AXIS2_PLACEMENT_3D('',#363,#286,#287);
#244=AXIS2_PLACEMENT_3D('',#365,#288,#289);
#245=AXIS2_PLACEMENT_3D('',#366,#290,#291);
#246=AXIS2_PLACEMENT_3D('',#367,#292,#293);
#247=AXIS2_PLACEMENT_3D('',#369,#294,#295);
#248=AXIS2_PLACEMENT_3D('',#370,#296,#297);
#249=AXIS2_PLACEMENT_3D('',#372,#299,#300);
#250=AXIS2_PLACEMENT_3D('',#374,#302,#303);
#251=AXIS2_PLACEMENT_3D('',#375,#304,#305);
#252=AXIS2_PLACEMENT_3D('',#376,#306,#307);
#253=AXIS2_PLACEMENT_3D('',#377,#308,#309);
#254=AXIS2_PLACEMENT_3D('',#379,#310,#311);
#255=AXIS2_PLACEMENT_3D('',#380,#312,#313);
#256=AXIS2_PLACEMENT_3D('',#382,#314,#315);
#257=AXIS2_PLACEMENT_3D('',#383,#316,#317);
#258=AXIS2_PLACEMENT_3D('',#385,#318,#319);
#259=AXIS2_PLACEMENT_3D('',#386,#320,#321);
#260=DIRECTION('',(0.,0.,1.));
#261=DIRECTION('',(1.,0.,0.));
#262=DIRECTION('',(0.,0.,1.));
#263=DIRECTION('',(1.,0.,0.));
#264=DIRECTION('',(0.,0.,1.));
#265=DIRECTION('',(1.,0.,0.));
#266=DIRECTION('',(0.,0.,1.));
#267=DIRECTION('',(1.,0.,0.));
#268=DIRECTION('',(0.,0.,-1.));
#269=DIRECTION('',(1.,0.,0.));
#270=DIRECTION('',(0.,0.,-1.));
#271=DIRECTION('',(-1.,0.,0.));
#272=DIRECTION('',(0.,0.,1.));
#273=DIRECTION('',(1.,0.,0.));
#274=DIRECTION('',(0.,0.,1.));
#275=DIRECTION('',(1.,0.,0.));
#276=DIRECTION('',(0.,0.,-1.));
#277=DIRECTION('',(-1.,0.,0.));
#278=DIRECTION('',(0.,0.707106781186547,-0.707106781186548));
#279=DIRECTION('',(0.,0.707106781186548,0.707106781186547));
#280=DIRECTION('',(0.,0.,1.));
#281=DIRECTION('',(0.,0.707106781186548,0.707106781186547));
#282=DIRECTION('',(0.,-0.707106781186547,0.707106781186548));
#283=DIRECTION('',(0.,0.,-1.));
#284=DIRECTION('',(0.,0.,1.));
#285=DIRECTION('',(1.,0.,0.));
#286=DIRECTION('',(0.,0.,1.));
#287=DIRECTION('',(1.,0.,0.));
#288=DIRECTION('',(0.,0.,1.));
#289=DIRECTION('',(1.,0.,-4.76735877402845E-17));
#290=DIRECTION('',(0.,0.,1.));
#291=DIRECTION('',(1.,0.,0.));
#292=DIRECTION('',(0.,0.,1.));
#293=DIRECTION('',(-1.,0.,0.));
#294=DIRECTION('',(0.,0.,-1.));
#295=DIRECTION('',(-1.,0.,0.));
#296=DIRECTION('',(0.,0.,-1.));
#297=DIRECTION('',(-1.,0.,0.));
#298=DIRECTION('',(1.,0.,0.));
#299=DIRECTION('',(0.,0.707106781186547,-0.707106781186548));
#300=DIRECTION('',(0.,-0.707106781186548,-0.707106781186547));
#301=DIRECTION('',(1.,0.,0.));
#302=DIRECTION('',(0.,1.,-1.23908819712629E-16));
#303=DIRECTION('',(0.,-1.24032728532342E-16,-1.));
#304=DIRECTION('',(0.,0.707106781186548,0.707106781186547));
#305=DIRECTION('',(0.,0.707106781186547,-0.707106781186548));
#306=DIRECTION('',(0.,0.,-1.));
#307=DIRECTION('',(-1.,0.,0.));
#308=DIRECTION('',(0.,0.,1.));
#309=DIRECTION('',(1.,0.,0.));
#310=DIRECTION('',(0.,0.,1.));
#311=DIRECTION('',(1.,0.,0.));
#312=DIRECTION('',(0.,0.,1.));
#313=DIRECTION('',(1.,0.,0.));
#314=DIRECTION('',(0.,0.,1.));
#315=DIRECTION('',(1.,0.,0.));
#316=DIRECTION('',(0.,0.,1.));
#317=DIRECTION('',(1.,0.,0.));
#318=DIRECTION('',(0.,0.,1.));
#319=DIRECTION('',(1.,0.,2.76216108032341E-17));
#320=DIRECTION('',(0.,0.,1.));
#321=DIRECTION('',(1.,0.,0.));
#322=CARTESIAN_POINT('',(0.,0.,0.));
#323=CARTESIAN_POINT('',(0.,0.,-40.));
#324=CARTESIAN_POINT('CRP',(-4.85,0.,-66.));
#325=CARTESIAN_POINT('CIP_DCSYS',(0.,0.,-66.));
#326=CARTESIAN_POINT('',(-4.85,0.,-65.8));
#327=CARTESIAN_POINT('',(-4.85,0.,-62.6333333333333));
#328=CARTESIAN_POINT('',(-4.85,0.,-59.4666666666667));
#329=CARTESIAN_POINT('',(-4.85,0.,-56.3));
#330=CARTESIAN_POINT('',(-3.23333333333333,0.,-56.3));
#331=CARTESIAN_POINT('',(-1.61666666666667,0.,-56.3));
#332=CARTESIAN_POINT('',(0.,0.,-56.3));
#333=CARTESIAN_POINT('',(0.,0.,-59.5333333333333));
#334=CARTESIAN_POINT('',(0.,0.,-62.7666666666667));
#335=CARTESIAN_POINT('',(0.,0.,-66.));
#336=CARTESIAN_POINT('',(-1.55,0.,-66.));
#337=CARTESIAN_POINT('',(-3.1,0.,-66.));
#338=CARTESIAN_POINT('',(-4.65,0.,-66.));
#339=CARTESIAN_POINT('',(-4.71666666666667,0.,-65.9333333333333));
#340=CARTESIAN_POINT('',(-4.78333333333333,0.,-65.8666666666667));
#341=CARTESIAN_POINT('',(-4.85,0.,-65.8));
#342=CARTESIAN_POINT('',(0.,0.,0.));
#343=CARTESIAN_POINT('',(0.,0.,-40.));
#344=CARTESIAN_POINT('',(0.,0.,-66.));
#345=CARTESIAN_POINT('',(0.,0.,-56.2976789221608));
#346=CARTESIAN_POINT('',(4.85,0.,-56.2976789221608));
#347=CARTESIAN_POINT('',(0.,0.,-56.3));
#348=CARTESIAN_POINT('',(-4.85,0.,-56.3));
#349=CARTESIAN_POINT('',(0.,0.,0.));
#350=CARTESIAN_POINT('',(0.,0.,-55.7699221085944));
#351=CARTESIAN_POINT('',(5.,0.,-55.7699221085944));
#352=CARTESIAN_POINT('',(0.,0.,-0.6));
#353=CARTESIAN_POINT('',(-5.,0.,-0.6));
#354=CARTESIAN_POINT('',(0.,0.,-20.));
#355=CARTESIAN_POINT('',(-3.57071421427142,3.5,-16.5));
#356=CARTESIAN_POINT('',(3.57071421427143,3.5,-16.5));
#357=CARTESIAN_POINT('',(-3.57071421427143,3.5,20.9080749503476));
#358=CARTESIAN_POINT('',(-3.57071421427143,3.5,-23.5));
#359=CARTESIAN_POINT('',(0.,0.,-20.));
#360=CARTESIAN_POINT('',(3.57071421427143,3.5,-23.5));
#361=CARTESIAN_POINT('',(3.57071421427143,3.5,20.9080749503476));
#362=CARTESIAN_POINT('',(0.,0.,20.9080749503476));
#363=CARTESIAN_POINT('',(0.,0.,-55.7976789221608));
#364=CARTESIAN_POINT('',(4.98397459621556,0.,-55.7976789221608));
#365=CARTESIAN_POINT('',(0.,0.,-56.0297297297297));
#366=CARTESIAN_POINT('',(0.,0.,-56.2976789221608));
#367=CARTESIAN_POINT('',(0.,0.,0.));
#368=CARTESIAN_POINT('',(-4.4,0.,0.));
#369=CARTESIAN_POINT('',(0.,5.,0.));
#370=CARTESIAN_POINT('',(0.,0.,0.));
#371=CARTESIAN_POINT('',(10.,3.5,-16.5));
#372=CARTESIAN_POINT('',(10.,5.,-15.));
#373=CARTESIAN_POINT('',(10.,3.5,-23.5));
#374=CARTESIAN_POINT('',(10.,3.5,-16.5));
#375=CARTESIAN_POINT('',(10.,5.,-25.));
#376=CARTESIAN_POINT('',(0.,0.,-56.3));
#377=CARTESIAN_POINT('',(0.,0.,-56.3));
#378=CARTESIAN_POINT('',(4.85,0.,-56.3));
#379=CARTESIAN_POINT('',(0.,0.,-56.3));
#380=CARTESIAN_POINT('',(0.,0.,-65.8));
#381=CARTESIAN_POINT('',(4.85,0.,-65.8));
#382=CARTESIAN_POINT('',(0.,0.,0.));
#383=CARTESIAN_POINT('',(0.,0.,-66.));
#384=CARTESIAN_POINT('',(4.65,0.,-66.));
#385=CARTESIAN_POINT('',(0.,0.,-65.8));
#386=CARTESIAN_POINT('',(0.,0.,-66.));
#387=MECHANICAL_DESIGN_GEOMETRIC_PRESENTATION_REPRESENTATION('',(#203,#204,
#205,#206,#207,#208,#209,#210,#211),#388);
#388=(
GEOMETRIC_REPRESENTATION_CONTEXT(3)
GLOBAL_UNCERTAINTY_ASSIGNED_CONTEXT((#389))
GLOBAL_UNIT_ASSIGNED_CONTEXT((#395,#391,#390))
REPRESENTATION_CONTEXT('TOOL','TOP_LEVEL_ASSEMBLY_PART')
);
#389=UNCERTAINTY_MEASURE_WITH_UNIT(LENGTH_MEASURE(2.E-5),#395,
'DISTANCE_ACCURACY_VALUE','Maximum Tolerance applied to model');
#390=(
NAMED_UNIT(*)
SI_UNIT($,.STERADIAN.)
SOLID_ANGLE_UNIT()
);
#391=(
CONVERSION_BASED_UNIT('DEGREE',#393)
NAMED_UNIT(#392)
PLANE_ANGLE_UNIT()
);
#392=DIMENSIONAL_EXPONENTS(0.,0.,0.,0.,0.,0.,0.);
#393=PLANE_ANGLE_MEASURE_WITH_UNIT(PLANE_ANGLE_MEASURE(0.0174532925),#394);
#394=(
NAMED_UNIT(*)
PLANE_ANGLE_UNIT()
SI_UNIT($,.RADIAN.)
);
#395=(
LENGTH_UNIT()
NAMED_UNIT(*)
SI_UNIT(.MILLI.,.METRE.)
);
ENDSEC;
END-ISO-10303-21;
