ISO-10303-21;
HEADER;
/* Generated by software containing ST-Developer
 * from STEP Tools, Inc. (www.steptools.com) 
 */
/* OPTION: using custom schema-name function */

FILE_DESCRIPTION(
/* description */ (''),
/* implementation_level */ '2;1');

FILE_NAME(
/* name */ 'TOOL.STP',
/* time_stamp */ '2023-03-20T04:25:37+01:00',
/* author */ (''),
/* organization */ ('SMS'),
/* preprocessor_version */ 'ST-DEVELOPER v16.7',
/* originating_system */ 'SIEMENS PLM Software NX 12.0',
/* authorisation */ '');

FILE_SCHEMA (('AUTOMOTIVE_DESIGN { 1 0 10303 214 3 1 1 1 }'));
ENDSEC;

DATA;
#10=CONSTRUCTIVE_GEOMETRY_REPRESENTATION_RELATIONSHIP(
'supplemental geometry','',#26,#11);
#11=CONSTRUCTIVE_GEOMETRY_REPRESENTATION('supplemental geometry',(#175,
#176,#177),#287);
#12=GEOMETRICALLY_BOUNDED_WIREFRAME_SHAPE_REPRESENTATION('Tool-None',(#27),
#287);
#13=SHAPE_REPRESENTATION_RELATIONSHIP('None',
'relationship between Tool-None and Tool-None',#26,#15);
#14=SHAPE_REPRESENTATION_RELATIONSHIP('None',
'relationship between Tool-None and Tool-None',#26,#12);
#15=ADVANCED_BREP_SHAPE_REPRESENTATION('Tool-None',(#38,#39),#287);
#16=SHAPE_DEFINITION_REPRESENTATION(#17,#26);
#17=PRODUCT_DEFINITION_SHAPE('','',#18);
#18=PRODUCT_DEFINITION(' ','',#20,#19);
#19=PRODUCT_DEFINITION_CONTEXT('part definition',#25,'design');
#20=PRODUCT_DEFINITION_FORMATION_WITH_SPECIFIED_SOURCE(' ',' ',#22,
 .NOT_KNOWN.);
#21=PRODUCT_RELATED_PRODUCT_CATEGORY('part','',(#22));
#22=PRODUCT('Tool','Tool',' ',(#23));
#23=PRODUCT_CONTEXT(' ',#25,'mechanical');
#24=APPLICATION_PROTOCOL_DEFINITION('international standard',
'automotive_design',2010,#25);
#25=APPLICATION_CONTEXT(
'core data for automotive mechanical design processes');
#26=SHAPE_REPRESENTATION('Tool-None',(#174),#287);
#27=GEOMETRIC_CURVE_SET('None',(#241,#242,#243,#142));
#28=SURFACE_STYLE_USAGE(.BOTH.,#30);
#29=SURFACE_STYLE_USAGE(.BOTH.,#31);
#30=SURFACE_SIDE_STYLE('',(#32));
#31=SURFACE_SIDE_STYLE('',(#33));
#32=SURFACE_STYLE_FILL_AREA(#34);
#33=SURFACE_STYLE_FILL_AREA(#35);
#34=FILL_AREA_STYLE('',(#36));
#35=FILL_AREA_STYLE('',(#37));
#36=FILL_AREA_STYLE_COLOUR('',#172);
#37=FILL_AREA_STYLE_COLOUR('',#173);
#38=MANIFOLD_SOLID_BREP('NOCUT',#40);
#39=MANIFOLD_SOLID_BREP('CUT',#41);
#40=CLOSED_SHELL('',(#53,#54,#55,#56,#57,#58,#59));
#41=CLOSED_SHELL('',(#60,#61,#62));
#42=PLANE('',#186);
#43=PLANE('',#190);
#44=PLANE('',#192);
#45=PLANE('',#195);
#46=FACE_OUTER_BOUND('',#84,.T.);
#47=FACE_OUTER_BOUND('',#89,.T.);
#48=FACE_OUTER_BOUND('',#90,.T.);
#49=FACE_OUTER_BOUND('',#93,.T.);
#50=TOROIDAL_SURFACE('',#184,2.,1.);
#51=CONICAL_SURFACE('',#183,1.,30.);
#52=CONICAL_SURFACE('',#189,2.6,45.);
#53=ADVANCED_FACE('',(#66,#67),#63,.T.);
#54=ADVANCED_FACE('',(#68,#69),#51,.T.);
#55=ADVANCED_FACE('',(#70,#71),#50,.F.);
#56=ADVANCED_FACE('',(#46),#42,.F.);
#57=ADVANCED_FACE('',(#72,#73),#64,.T.);
#58=ADVANCED_FACE('',(#74,#75),#52,.T.);
#59=ADVANCED_FACE('',(#47),#43,.T.);
#60=ADVANCED_FACE('',(#48),#44,.T.);
#61=ADVANCED_FACE('',(#76,#77),#65,.T.);
#62=ADVANCED_FACE('',(#49),#45,.F.);
#63=CYLINDRICAL_SURFACE('',#180,1.);
#64=CYLINDRICAL_SURFACE('',#188,3.);
#65=CYLINDRICAL_SURFACE('',#194,1.);
#66=FACE_BOUND('',#78,.T.);
#67=FACE_BOUND('',#79,.T.);
#68=FACE_BOUND('',#80,.T.);
#69=FACE_BOUND('',#81,.T.);
#70=FACE_BOUND('',#82,.T.);
#71=FACE_BOUND('',#83,.T.);
#72=FACE_BOUND('',#85,.T.);
#73=FACE_BOUND('',#86,.T.);
#74=FACE_BOUND('',#87,.T.);
#75=FACE_BOUND('',#88,.T.);
#76=FACE_BOUND('',#91,.T.);
#77=FACE_BOUND('',#92,.T.);
#78=EDGE_LOOP('',(#94));
#79=EDGE_LOOP('',(#95));
#80=EDGE_LOOP('',(#96));
#81=EDGE_LOOP('',(#97));
#82=EDGE_LOOP('',(#98));
#83=EDGE_LOOP('',(#99));
#84=EDGE_LOOP('',(#100));
#85=EDGE_LOOP('',(#101));
#86=EDGE_LOOP('',(#102));
#87=EDGE_LOOP('',(#103));
#88=EDGE_LOOP('',(#104));
#89=EDGE_LOOP('',(#105));
#90=EDGE_LOOP('',(#106));
#91=EDGE_LOOP('',(#107));
#92=EDGE_LOOP('',(#108));
#93=EDGE_LOOP('',(#109));
#94=ORIENTED_EDGE('',*,*,#118,.T.);
#95=ORIENTED_EDGE('',*,*,#119,.F.);
#96=ORIENTED_EDGE('',*,*,#120,.T.);
#97=ORIENTED_EDGE('',*,*,#121,.F.);
#98=ORIENTED_EDGE('',*,*,#118,.F.);
#99=ORIENTED_EDGE('',*,*,#120,.F.);
#100=ORIENTED_EDGE('',*,*,#122,.T.);
#101=ORIENTED_EDGE('',*,*,#123,.T.);
#102=ORIENTED_EDGE('',*,*,#121,.T.);
#103=ORIENTED_EDGE('',*,*,#123,.F.);
#104=ORIENTED_EDGE('',*,*,#122,.F.);
#105=ORIENTED_EDGE('',*,*,#119,.T.);
#106=ORIENTED_EDGE('',*,*,#124,.T.);
#107=ORIENTED_EDGE('',*,*,#125,.T.);
#108=ORIENTED_EDGE('',*,*,#124,.F.);
#109=ORIENTED_EDGE('',*,*,#125,.F.);
#110=VERTEX_POINT('',#261);
#111=VERTEX_POINT('',#263);
#112=VERTEX_POINT('',#266);
#113=VERTEX_POINT('',#268);
#114=VERTEX_POINT('',#272);
#115=VERTEX_POINT('',#275);
#116=VERTEX_POINT('',#280);
#117=VERTEX_POINT('',#283);
#118=EDGE_CURVE('',#110,#110,#126,.T.);
#119=EDGE_CURVE('',#111,#111,#127,.T.);
#120=EDGE_CURVE('',#112,#112,#128,.T.);
#121=EDGE_CURVE('',#113,#113,#129,.T.);
#122=EDGE_CURVE('',#114,#114,#130,.T.);
#123=EDGE_CURVE('',#115,#115,#131,.T.);
#124=EDGE_CURVE('',#116,#116,#132,.T.);
#125=EDGE_CURVE('',#117,#117,#133,.T.);
#126=CIRCLE('',#178,0.999999999999998);
#127=CIRCLE('',#179,1.);
#128=CIRCLE('',#181,1.13397459621556);
#129=CIRCLE('',#182,3.);
#130=CIRCLE('',#185,2.6);
#131=CIRCLE('',#187,3.);
#132=CIRCLE('',#191,1.);
#133=CIRCLE('',#193,1.);
#134=CURVE_STYLE('',#138,POSITIVE_LENGTH_MEASURE(0.18),#144);
#135=CURVE_STYLE('',#139,POSITIVE_LENGTH_MEASURE(0.13),#171);
#136=CURVE_STYLE('',#140,POSITIVE_LENGTH_MEASURE(0.18),#170);
#137=CURVE_STYLE('',#141,POSITIVE_LENGTH_MEASURE(0.18),#170);
#138=DRAUGHTING_PRE_DEFINED_CURVE_FONT('continuous');
#139=DRAUGHTING_PRE_DEFINED_CURVE_FONT('continuous');
#140=DRAUGHTING_PRE_DEFINED_CURVE_FONT('continuous');
#141=DRAUGHTING_PRE_DEFINED_CURVE_FONT('continuous');
#142=B_SPLINE_CURVE_WITH_KNOTS('CUTTING PART LINE',3,(#244,#245,#246,#247,
#248,#249,#250,#251,#252,#253,#254,#255,#256),.UNSPECIFIED.,.T.,.F.,(4,
3,3,3,4),(0.,0.400000000002,0.500000000005,0.900000000007,1.),
 .UNSPECIFIED.);
#143=DRAUGHTING_PRE_DEFINED_COLOUR('white');
#144=DRAUGHTING_PRE_DEFINED_COLOUR('blue');
#145=PRESENTATION_LAYER_ASSIGNMENT('1','Layer 1',(#241,#242,#243,#142,#175,
#176,#177,#38,#39));
#146=STYLED_ITEM('',(#155),#241);
#147=STYLED_ITEM('',(#156),#242);
#148=STYLED_ITEM('',(#157),#243);
#149=STYLED_ITEM('',(#158),#142);
#150=STYLED_ITEM('',(#159),#175);
#151=STYLED_ITEM('',(#160),#176);
#152=STYLED_ITEM('',(#161),#177);
#153=STYLED_ITEM('',(#162),#38);
#154=STYLED_ITEM('',(#163),#39);
#155=PRESENTATION_STYLE_ASSIGNMENT((#164));
#156=PRESENTATION_STYLE_ASSIGNMENT((#165));
#157=PRESENTATION_STYLE_ASSIGNMENT((#166));
#158=PRESENTATION_STYLE_ASSIGNMENT((#134));
#159=PRESENTATION_STYLE_ASSIGNMENT((#135));
#160=PRESENTATION_STYLE_ASSIGNMENT((#136));
#161=PRESENTATION_STYLE_ASSIGNMENT((#137));
#162=PRESENTATION_STYLE_ASSIGNMENT((#28));
#163=PRESENTATION_STYLE_ASSIGNMENT((#29));
#164=POINT_STYLE('',#167,POSITIVE_LENGTH_MEASURE(3.),#170);
#165=POINT_STYLE('',#168,POSITIVE_LENGTH_MEASURE(3.),#143);
#166=POINT_STYLE('',#169,POSITIVE_LENGTH_MEASURE(3.),#170);
#167=PRE_DEFINED_POINT_MARKER_SYMBOL('plus');
#168=PRE_DEFINED_POINT_MARKER_SYMBOL('plus');
#169=PRE_DEFINED_POINT_MARKER_SYMBOL('plus');
#170=COLOUR_RGB('Medium Maroon',0.6,0.4,0.4);
#171=COLOUR_RGB('Silver Gray',0.6,0.6,0.6);
#172=COLOUR_RGB('TLS_NOCUT',0.498023956664378,0.498023956664378,0.498023956664378);
#173=COLOUR_RGB('TLS_CUT',0.8,0.8,0.8);
#174=AXIS2_PLACEMENT_3D('',#240,#196,#197);
#175=AXIS2_PLACEMENT_3D('PCS',#257,#198,#199);
#176=AXIS2_PLACEMENT_3D('MCS',#258,#200,#201);
#177=AXIS2_PLACEMENT_3D('CIP',#259,#202,#203);
#178=AXIS2_PLACEMENT_3D('',#260,#204,#205);
#179=AXIS2_PLACEMENT_3D('',#262,#206,#207);
#180=AXIS2_PLACEMENT_3D('',#264,#208,#209);
#181=AXIS2_PLACEMENT_3D('',#265,#210,#211);
#182=AXIS2_PLACEMENT_3D('',#267,#212,#213);
#183=AXIS2_PLACEMENT_3D('',#269,#214,#215);
#184=AXIS2_PLACEMENT_3D('',#270,#216,#217);
#185=AXIS2_PLACEMENT_3D('',#271,#218,#219);
#186=AXIS2_PLACEMENT_3D('',#273,#220,#221);
#187=AXIS2_PLACEMENT_3D('',#274,#222,#223);
#188=AXIS2_PLACEMENT_3D('',#276,#224,#225);
#189=AXIS2_PLACEMENT_3D('',#277,#226,#227);
#190=AXIS2_PLACEMENT_3D('',#278,#228,#229);
#191=AXIS2_PLACEMENT_3D('',#279,#230,#231);
#192=AXIS2_PLACEMENT_3D('',#281,#232,#233);
#193=AXIS2_PLACEMENT_3D('',#282,#234,#235);
#194=AXIS2_PLACEMENT_3D('',#284,#236,#237);
#195=AXIS2_PLACEMENT_3D('',#285,#238,#239);
#196=DIRECTION('',(0.,0.,1.));
#197=DIRECTION('',(1.,0.,0.));
#198=DIRECTION('',(0.,0.,1.));
#199=DIRECTION('',(1.,0.,0.));
#200=DIRECTION('',(0.,0.,1.));
#201=DIRECTION('',(1.,0.,0.));
#202=DIRECTION('',(0.,0.,1.));
#203=DIRECTION('',(1.,0.,0.));
#204=DIRECTION('',(0.,0.,-1.));
#205=DIRECTION('',(1.,0.,0.));
#206=DIRECTION('',(0.,0.,-1.));
#207=DIRECTION('',(-1.,0.,0.));
#208=DIRECTION('',(0.,0.,1.));
#209=DIRECTION('',(1.,0.,0.));
#210=DIRECTION('',(0.,0.,1.));
#211=DIRECTION('',(1.,0.,0.));
#212=DIRECTION('',(0.,0.,1.));
#213=DIRECTION('',(1.,0.,0.));
#214=DIRECTION('',(0.,0.,1.));
#215=DIRECTION('',(1.,0.,1.19977361013938E-17));
#216=DIRECTION('',(0.,0.,1.));
#217=DIRECTION('',(1.,0.,0.));
#218=DIRECTION('',(0.,0.,1.));
#219=DIRECTION('',(-1.,0.,0.));
#220=DIRECTION('',(0.,0.,-1.));
#221=DIRECTION('',(-1.,0.,0.));
#222=DIRECTION('',(0.,0.,-1.));
#223=DIRECTION('',(-1.,0.,0.));
#224=DIRECTION('',(0.,0.,1.));
#225=DIRECTION('',(1.,0.,0.));
#226=DIRECTION('',(0.,0.,-1.));
#227=DIRECTION('',(-1.,0.,0.));
#228=DIRECTION('',(0.,0.,-1.));
#229=DIRECTION('',(-1.,0.,0.));
#230=DIRECTION('',(0.,0.,1.));
#231=DIRECTION('',(1.,0.,0.));
#232=DIRECTION('',(0.,0.,1.));
#233=DIRECTION('',(1.,0.,0.));
#234=DIRECTION('',(0.,0.,1.));
#235=DIRECTION('',(1.,0.,0.));
#236=DIRECTION('',(0.,0.,1.));
#237=DIRECTION('',(1.,0.,0.));
#238=DIRECTION('',(0.,0.,1.));
#239=DIRECTION('',(1.,0.,0.));
#240=CARTESIAN_POINT('',(0.,0.,0.));
#241=CARTESIAN_POINT('',(0.,0.,-36.));
#242=CARTESIAN_POINT('CRP',(-1.,0.,-57.));
#243=CARTESIAN_POINT('CIP_DCSYS',(0.,0.,-57.));
#244=CARTESIAN_POINT('',(0.,0.,-57.));
#245=CARTESIAN_POINT('',(0.,0.,-55.6666666666667));
#246=CARTESIAN_POINT('',(0.,0.,-54.3333333333333));
#247=CARTESIAN_POINT('',(0.,0.,-53.));
#248=CARTESIAN_POINT('',(-0.333333333333334,0.,-53.));
#249=CARTESIAN_POINT('',(-0.666666666666667,0.,-53.));
#250=CARTESIAN_POINT('',(-1.,0.,-53.));
#251=CARTESIAN_POINT('',(-1.,0.,-54.3333333333333));
#252=CARTESIAN_POINT('',(-1.,0.,-55.6666666666667));
#253=CARTESIAN_POINT('',(-1.,0.,-57.));
#254=CARTESIAN_POINT('',(-0.666666666666667,0.,-57.));
#255=CARTESIAN_POINT('',(-0.333333333333333,0.,-57.));
#256=CARTESIAN_POINT('',(0.,0.,-57.));
#257=CARTESIAN_POINT('',(0.,0.,0.));
#258=CARTESIAN_POINT('',(0.,0.,-36.));
#259=CARTESIAN_POINT('',(0.,0.,-57.));
#260=CARTESIAN_POINT('',(0.,0.,-46.4976789221609));
#261=CARTESIAN_POINT('',(0.999999999999998,0.,-46.4976789221609));
#262=CARTESIAN_POINT('',(0.,0.,-53.));
#263=CARTESIAN_POINT('',(-1.,0.,-53.));
#264=CARTESIAN_POINT('',(0.,0.,0.));
#265=CARTESIAN_POINT('',(0.,0.,-45.9976789221609));
#266=CARTESIAN_POINT('',(1.13397459621556,0.,-45.9976789221609));
#267=CARTESIAN_POINT('',(0.,0.,-42.765628114592));
#268=CARTESIAN_POINT('',(3.,0.,-42.765628114592));
#269=CARTESIAN_POINT('',(0.,0.,-46.2297297297297));
#270=CARTESIAN_POINT('',(0.,0.,-46.4976789221609));
#271=CARTESIAN_POINT('',(0.,0.,0.));
#272=CARTESIAN_POINT('',(-2.6,0.,0.));
#273=CARTESIAN_POINT('',(0.,3.00000000000001,0.));
#274=CARTESIAN_POINT('',(0.,0.,-0.400000000000001));
#275=CARTESIAN_POINT('',(-3.,0.,-0.400000000000001));
#276=CARTESIAN_POINT('',(0.,0.,20.9080749503476));
#277=CARTESIAN_POINT('',(0.,0.,0.));
#278=CARTESIAN_POINT('',(0.,0.,-53.));
#279=CARTESIAN_POINT('',(0.,0.,-53.));
#280=CARTESIAN_POINT('',(1.,0.,-53.));
#281=CARTESIAN_POINT('',(0.,0.,-53.));
#282=CARTESIAN_POINT('',(0.,0.,-57.));
#283=CARTESIAN_POINT('',(1.,0.,-57.));
#284=CARTESIAN_POINT('',(0.,0.,0.));
#285=CARTESIAN_POINT('',(0.,0.,-57.));
#286=MECHANICAL_DESIGN_GEOMETRIC_PRESENTATION_REPRESENTATION('',(#146,#147,
#148,#149,#150,#151,#152,#153,#154),#287);
#287=(
GEOMETRIC_REPRESENTATION_CONTEXT(3)
GLOBAL_UNCERTAINTY_ASSIGNED_CONTEXT((#288))
GLOBAL_UNIT_ASSIGNED_CONTEXT((#294,#290,#289))
REPRESENTATION_CONTEXT('TOOL','TOP_LEVEL_ASSEMBLY_PART')
);
#288=UNCERTAINTY_MEASURE_WITH_UNIT(LENGTH_MEASURE(2.E-5),#294,
'DISTANCE_ACCURACY_VALUE','Maximum Tolerance applied to model');
#289=(
NAMED_UNIT(*)
SI_UNIT($,.STERADIAN.)
SOLID_ANGLE_UNIT()
);
#290=(
CONVERSION_BASED_UNIT('DEGREE',#292)
NAMED_UNIT(#291)
PLANE_ANGLE_UNIT()
);
#291=DIMENSIONAL_EXPONENTS(0.,0.,0.,0.,0.,0.,0.);
#292=PLANE_ANGLE_MEASURE_WITH_UNIT(PLANE_ANGLE_MEASURE(0.0174532925),#293);
#293=(
NAMED_UNIT(*)
PLANE_ANGLE_UNIT()
SI_UNIT($,.RADIAN.)
);
#294=(
LENGTH_UNIT()
NAMED_UNIT(*)
SI_UNIT(.MILLI.,.METRE.)
);
ENDSEC;
END-ISO-10303-21;
