ISO-10303-21;
HEADER;
/* Generated by software containing ST-Developer
 * from STEP Tools, Inc. (www.steptools.com) 
 */
/* OPTION: using custom schema-name function */

FILE_DESCRIPTION(
/* description */ (''),
/* implementation_level */ '2;1');

FILE_NAME(
/* name */ 'TOOL.STP',
/* time_stamp */ '2023-03-20T04:26:06+01:00',
/* author */ (''),
/* organization */ ('SMS'),
/* preprocessor_version */ 'ST-DEVELOPER v16.7',
/* originating_system */ 'SIEMENS PLM Software NX 12.0',
/* authorisation */ '');

FILE_SCHEMA (('AUTOMOTIVE_DESIGN { 1 0 10303 214 3 1 1 1 }'));
ENDSEC;

DATA;
#10=CONSTRUCTIVE_GEOMETRY_REPRESENTATION_RELATIONSHIP(
'supplemental geometry','',#26,#11);
#11=CONSTRUCTIVE_GEOMETRY_REPRESENTATION('supplemental geometry',(#221,
#222,#223),#368);
#12=GEOMETRICALLY_BOUNDED_WIREFRAME_SHAPE_REPRESENTATION('Tool-None',(#27),
#368);
#13=SHAPE_REPRESENTATION_RELATIONSHIP('None',
'relationship between Tool-None and Tool-None',#26,#15);
#14=SHAPE_REPRESENTATION_RELATIONSHIP('None',
'relationship between Tool-None and Tool-None',#26,#12);
#15=ADVANCED_BREP_SHAPE_REPRESENTATION('Tool-None',(#38,#39),#368);
#16=SHAPE_DEFINITION_REPRESENTATION(#17,#26);
#17=PRODUCT_DEFINITION_SHAPE('','',#18);
#18=PRODUCT_DEFINITION(' ','',#20,#19);
#19=PRODUCT_DEFINITION_CONTEXT('part definition',#25,'design');
#20=PRODUCT_DEFINITION_FORMATION_WITH_SPECIFIED_SOURCE(' ',' ',#22,
 .NOT_KNOWN.);
#21=PRODUCT_RELATED_PRODUCT_CATEGORY('part','',(#22));
#22=PRODUCT('Tool','Tool',' ',(#23));
#23=PRODUCT_CONTEXT(' ',#25,'mechanical');
#24=APPLICATION_PROTOCOL_DEFINITION('international standard',
'automotive_design',2010,#25);
#25=APPLICATION_CONTEXT(
'core data for automotive mechanical design processes');
#26=SHAPE_REPRESENTATION('Tool-None',(#220),#368);
#27=GEOMETRIC_CURVE_SET('None',(#306,#307,#308,#188));
#28=SURFACE_STYLE_USAGE(.BOTH.,#30);
#29=SURFACE_STYLE_USAGE(.BOTH.,#31);
#30=SURFACE_SIDE_STYLE('',(#32));
#31=SURFACE_SIDE_STYLE('',(#33));
#32=SURFACE_STYLE_FILL_AREA(#34);
#33=SURFACE_STYLE_FILL_AREA(#35);
#34=FILL_AREA_STYLE('',(#36));
#35=FILL_AREA_STYLE('',(#37));
#36=FILL_AREA_STYLE_COLOUR('',#218);
#37=FILL_AREA_STYLE_COLOUR('',#219);
#38=MANIFOLD_SOLID_BREP('NOCUT',#40);
#39=MANIFOLD_SOLID_BREP('CUT',#41);
#40=CLOSED_SHELL('',(#69,#70,#71,#72,#73,#74,#75,#76,#77));
#41=CLOSED_SHELL('',(#78,#79,#80,#81));
#42=CONICAL_SURFACE('',#235,3.5,45.);
#43=CONICAL_SURFACE('',#245,3.90000000000001,45.0000000000019);
#44=PLANE('',#234);
#45=PLANE('',#236);
#46=PLANE('',#237);
#47=PLANE('',#238);
#48=PLANE('',#239);
#49=PLANE('',#241);
#50=PLANE('',#246);
#51=FACE_OUTER_BOUND('',#105,.T.);
#52=FACE_OUTER_BOUND('',#108,.T.);
#53=FACE_OUTER_BOUND('',#109,.T.);
#54=FACE_OUTER_BOUND('',#110,.T.);
#55=FACE_OUTER_BOUND('',#111,.T.);
#56=FACE_OUTER_BOUND('',#112,.T.);
#57=FACE_OUTER_BOUND('',#117,.T.);
#58=TOROIDAL_SURFACE('',#232,4.9,1.);
#59=LINE('',#340,#63);
#60=LINE('',#344,#64);
#61=LINE('',#351,#65);
#62=LINE('',#353,#66);
#63=VECTOR('',#267,1.);
#64=VECTOR('',#270,1.);
#65=VECTOR('',#281,1.);
#66=VECTOR('',#284,1.);
#67=ELLIPSE('',#229,5.65685424949238,4.);
#68=ELLIPSE('',#230,5.65685424949239,4.);
#69=ADVANCED_FACE('',(#85,#86),#82,.T.);
#70=ADVANCED_FACE('',(#87,#88,#89),#83,.T.);
#71=ADVANCED_FACE('',(#90,#91),#58,.F.);
#72=ADVANCED_FACE('',(#51),#44,.F.);
#73=ADVANCED_FACE('',(#92,#93),#42,.T.);
#74=ADVANCED_FACE('',(#52),#45,.T.);
#75=ADVANCED_FACE('',(#53),#46,.T.);
#76=ADVANCED_FACE('',(#54),#47,.T.);
#77=ADVANCED_FACE('',(#55),#48,.T.);
#78=ADVANCED_FACE('',(#56),#49,.T.);
#79=ADVANCED_FACE('',(#94,#95),#84,.T.);
#80=ADVANCED_FACE('',(#96,#97),#43,.T.);
#81=ADVANCED_FACE('',(#57),#50,.F.);
#82=CYLINDRICAL_SURFACE('',#226,3.9);
#83=CYLINDRICAL_SURFACE('',#231,4.);
#84=CYLINDRICAL_SURFACE('',#243,3.9);
#85=FACE_BOUND('',#98,.T.);
#86=FACE_BOUND('',#99,.T.);
#87=FACE_BOUND('',#100,.T.);
#88=FACE_BOUND('',#101,.T.);
#89=FACE_BOUND('',#102,.T.);
#90=FACE_BOUND('',#103,.T.);
#91=FACE_BOUND('',#104,.T.);
#92=FACE_BOUND('',#106,.T.);
#93=FACE_BOUND('',#107,.T.);
#94=FACE_BOUND('',#113,.T.);
#95=FACE_BOUND('',#114,.T.);
#96=FACE_BOUND('',#115,.T.);
#97=FACE_BOUND('',#116,.T.);
#98=EDGE_LOOP('',(#118));
#99=EDGE_LOOP('',(#119));
#100=EDGE_LOOP('',(#120));
#101=EDGE_LOOP('',(#121));
#102=EDGE_LOOP('',(#122,#123,#124,#125));
#103=EDGE_LOOP('',(#126));
#104=EDGE_LOOP('',(#127));
#105=EDGE_LOOP('',(#128));
#106=EDGE_LOOP('',(#129));
#107=EDGE_LOOP('',(#130));
#108=EDGE_LOOP('',(#131,#132));
#109=EDGE_LOOP('',(#133,#134,#135,#136));
#110=EDGE_LOOP('',(#137,#138));
#111=EDGE_LOOP('',(#139));
#112=EDGE_LOOP('',(#140));
#113=EDGE_LOOP('',(#141));
#114=EDGE_LOOP('',(#142));
#115=EDGE_LOOP('',(#143));
#116=EDGE_LOOP('',(#144));
#117=EDGE_LOOP('',(#145));
#118=ORIENTED_EDGE('',*,*,#158,.T.);
#119=ORIENTED_EDGE('',*,*,#159,.F.);
#120=ORIENTED_EDGE('',*,*,#160,.T.);
#121=ORIENTED_EDGE('',*,*,#161,.T.);
#122=ORIENTED_EDGE('',*,*,#162,.F.);
#123=ORIENTED_EDGE('',*,*,#163,.F.);
#124=ORIENTED_EDGE('',*,*,#164,.F.);
#125=ORIENTED_EDGE('',*,*,#165,.F.);
#126=ORIENTED_EDGE('',*,*,#158,.F.);
#127=ORIENTED_EDGE('',*,*,#160,.F.);
#128=ORIENTED_EDGE('',*,*,#166,.T.);
#129=ORIENTED_EDGE('',*,*,#161,.F.);
#130=ORIENTED_EDGE('',*,*,#166,.F.);
#131=ORIENTED_EDGE('',*,*,#162,.T.);
#132=ORIENTED_EDGE('',*,*,#167,.F.);
#133=ORIENTED_EDGE('',*,*,#163,.T.);
#134=ORIENTED_EDGE('',*,*,#167,.T.);
#135=ORIENTED_EDGE('',*,*,#165,.T.);
#136=ORIENTED_EDGE('',*,*,#168,.F.);
#137=ORIENTED_EDGE('',*,*,#164,.T.);
#138=ORIENTED_EDGE('',*,*,#168,.T.);
#139=ORIENTED_EDGE('',*,*,#159,.T.);
#140=ORIENTED_EDGE('',*,*,#169,.T.);
#141=ORIENTED_EDGE('',*,*,#170,.T.);
#142=ORIENTED_EDGE('',*,*,#169,.F.);
#143=ORIENTED_EDGE('',*,*,#171,.T.);
#144=ORIENTED_EDGE('',*,*,#170,.F.);
#145=ORIENTED_EDGE('',*,*,#171,.F.);
#146=VERTEX_POINT('',#329);
#147=VERTEX_POINT('',#331);
#148=VERTEX_POINT('',#334);
#149=VERTEX_POINT('',#336);
#150=VERTEX_POINT('',#338);
#151=VERTEX_POINT('',#339);
#152=VERTEX_POINT('',#341);
#153=VERTEX_POINT('',#343);
#154=VERTEX_POINT('',#348);
#155=VERTEX_POINT('',#358);
#156=VERTEX_POINT('',#361);
#157=VERTEX_POINT('',#364);
#158=EDGE_CURVE('',#146,#146,#172,.T.);
#159=EDGE_CURVE('',#147,#147,#173,.T.);
#160=EDGE_CURVE('',#148,#148,#174,.T.);
#161=EDGE_CURVE('',#149,#149,#175,.T.);
#162=EDGE_CURVE('',#150,#151,#67,.T.);
#163=EDGE_CURVE('',#152,#150,#59,.T.);
#164=EDGE_CURVE('',#153,#152,#68,.T.);
#165=EDGE_CURVE('',#151,#153,#60,.T.);
#166=EDGE_CURVE('',#154,#154,#176,.T.);
#167=EDGE_CURVE('',#150,#151,#61,.T.);
#168=EDGE_CURVE('',#152,#153,#62,.T.);
#169=EDGE_CURVE('',#155,#155,#177,.T.);
#170=EDGE_CURVE('',#156,#156,#178,.T.);
#171=EDGE_CURVE('',#157,#157,#179,.T.);
#172=CIRCLE('',#224,3.9);
#173=CIRCLE('',#225,3.9);
#174=CIRCLE('',#227,4.);
#175=CIRCLE('',#228,4.);
#176=CIRCLE('',#233,3.5);
#177=CIRCLE('',#240,3.9);
#178=CIRCLE('',#242,3.90000000000001);
#179=CIRCLE('',#244,3.77);
#180=CURVE_STYLE('',#184,POSITIVE_LENGTH_MEASURE(0.18),#190);
#181=CURVE_STYLE('',#185,POSITIVE_LENGTH_MEASURE(0.13),#217);
#182=CURVE_STYLE('',#186,POSITIVE_LENGTH_MEASURE(0.18),#216);
#183=CURVE_STYLE('',#187,POSITIVE_LENGTH_MEASURE(0.18),#216);
#184=DRAUGHTING_PRE_DEFINED_CURVE_FONT('continuous');
#185=DRAUGHTING_PRE_DEFINED_CURVE_FONT('continuous');
#186=DRAUGHTING_PRE_DEFINED_CURVE_FONT('continuous');
#187=DRAUGHTING_PRE_DEFINED_CURVE_FONT('continuous');
#188=B_SPLINE_CURVE_WITH_KNOTS('CUTTING PART LINE',3,(#309,#310,#311,#312,
#313,#314,#315,#316,#317,#318,#319,#320,#321,#322,#323,#324),
 .UNSPECIFIED.,.T.,.F.,(4,3,3,3,3,4),(0.,0.328847970452259,0.49605880288561,
0.830480467748026,0.992117605766933,1.),.UNSPECIFIED.);
#189=DRAUGHTING_PRE_DEFINED_COLOUR('white');
#190=DRAUGHTING_PRE_DEFINED_COLOUR('blue');
#191=PRESENTATION_LAYER_ASSIGNMENT('1','Layer 1',(#306,#307,#308,#188,#221,
#222,#223,#38,#39));
#192=STYLED_ITEM('',(#201),#306);
#193=STYLED_ITEM('',(#202),#307);
#194=STYLED_ITEM('',(#203),#308);
#195=STYLED_ITEM('',(#204),#188);
#196=STYLED_ITEM('',(#205),#221);
#197=STYLED_ITEM('',(#206),#222);
#198=STYLED_ITEM('',(#207),#223);
#199=STYLED_ITEM('',(#208),#38);
#200=STYLED_ITEM('',(#209),#39);
#201=PRESENTATION_STYLE_ASSIGNMENT((#210));
#202=PRESENTATION_STYLE_ASSIGNMENT((#211));
#203=PRESENTATION_STYLE_ASSIGNMENT((#212));
#204=PRESENTATION_STYLE_ASSIGNMENT((#180));
#205=PRESENTATION_STYLE_ASSIGNMENT((#181));
#206=PRESENTATION_STYLE_ASSIGNMENT((#182));
#207=PRESENTATION_STYLE_ASSIGNMENT((#183));
#208=PRESENTATION_STYLE_ASSIGNMENT((#28));
#209=PRESENTATION_STYLE_ASSIGNMENT((#29));
#210=POINT_STYLE('',#213,POSITIVE_LENGTH_MEASURE(3.),#216);
#211=POINT_STYLE('',#214,POSITIVE_LENGTH_MEASURE(3.),#189);
#212=POINT_STYLE('',#215,POSITIVE_LENGTH_MEASURE(3.),#216);
#213=PRE_DEFINED_POINT_MARKER_SYMBOL('plus');
#214=PRE_DEFINED_POINT_MARKER_SYMBOL('plus');
#215=PRE_DEFINED_POINT_MARKER_SYMBOL('plus');
#216=COLOUR_RGB('Medium Maroon',0.6,0.4,0.4);
#217=COLOUR_RGB('Silver Gray',0.6,0.6,0.6);
#218=COLOUR_RGB('TLS_NOCUT',0.498023956664378,0.498023956664378,0.498023956664378);
#219=COLOUR_RGB('TLS_CUT',0.8,0.8,0.8);
#220=AXIS2_PLACEMENT_3D('',#305,#247,#248);
#221=AXIS2_PLACEMENT_3D('PCS',#325,#249,#250);
#222=AXIS2_PLACEMENT_3D('MCS',#326,#251,#252);
#223=AXIS2_PLACEMENT_3D('CIP',#327,#253,#254);
#224=AXIS2_PLACEMENT_3D('',#328,#255,#256);
#225=AXIS2_PLACEMENT_3D('',#330,#257,#258);
#226=AXIS2_PLACEMENT_3D('',#332,#259,#260);
#227=AXIS2_PLACEMENT_3D('',#333,#261,#262);
#228=AXIS2_PLACEMENT_3D('',#335,#263,#264);
#229=AXIS2_PLACEMENT_3D('',#337,#265,#266);
#230=AXIS2_PLACEMENT_3D('',#342,#268,#269);
#231=AXIS2_PLACEMENT_3D('',#345,#271,#272);
#232=AXIS2_PLACEMENT_3D('',#346,#273,#274);
#233=AXIS2_PLACEMENT_3D('',#347,#275,#276);
#234=AXIS2_PLACEMENT_3D('',#349,#277,#278);
#235=AXIS2_PLACEMENT_3D('',#350,#279,#280);
#236=AXIS2_PLACEMENT_3D('',#352,#282,#283);
#237=AXIS2_PLACEMENT_3D('',#354,#285,#286);
#238=AXIS2_PLACEMENT_3D('',#355,#287,#288);
#239=AXIS2_PLACEMENT_3D('',#356,#289,#290);
#240=AXIS2_PLACEMENT_3D('',#357,#291,#292);
#241=AXIS2_PLACEMENT_3D('',#359,#293,#294);
#242=AXIS2_PLACEMENT_3D('',#360,#295,#296);
#243=AXIS2_PLACEMENT_3D('',#362,#297,#298);
#244=AXIS2_PLACEMENT_3D('',#363,#299,#300);
#245=AXIS2_PLACEMENT_3D('',#365,#301,#302);
#246=AXIS2_PLACEMENT_3D('',#366,#303,#304);
#247=DIRECTION('',(0.,0.,1.));
#248=DIRECTION('',(1.,0.,0.));
#249=DIRECTION('',(0.,0.,1.));
#250=DIRECTION('',(1.,0.,0.));
#251=DIRECTION('',(0.,0.,1.));
#252=DIRECTION('',(1.,0.,0.));
#253=DIRECTION('',(0.,0.,1.));
#254=DIRECTION('',(1.,0.,0.));
#255=DIRECTION('',(0.,0.,-1.));
#256=DIRECTION('',(1.,0.,0.));
#257=DIRECTION('',(0.,0.,-1.));
#258=DIRECTION('',(-1.,0.,0.));
#259=DIRECTION('',(0.,0.,1.));
#260=DIRECTION('',(1.,0.,0.));
#261=DIRECTION('',(0.,0.,1.));
#262=DIRECTION('',(1.,0.,0.));
#263=DIRECTION('',(0.,0.,-1.));
#264=DIRECTION('',(-1.,0.,0.));
#265=DIRECTION('',(0.,0.707106781186547,-0.707106781186548));
#266=DIRECTION('',(0.,0.707106781186548,0.707106781186547));
#267=DIRECTION('',(0.,0.,1.));
#268=DIRECTION('',(0.,0.707106781186549,0.707106781186546));
#269=DIRECTION('',(0.,-0.707106781186546,0.707106781186549));
#270=DIRECTION('',(0.,0.,-1.));
#271=DIRECTION('',(0.,0.,1.));
#272=DIRECTION('',(1.,0.,0.));
#273=DIRECTION('',(0.,0.,1.));
#274=DIRECTION('',(1.,0.,0.));
#275=DIRECTION('',(0.,0.,1.));
#276=DIRECTION('',(-1.,0.,0.));
#277=DIRECTION('',(0.,0.,-1.));
#278=DIRECTION('',(-1.,0.,0.));
#279=DIRECTION('',(0.,0.,-1.));
#280=DIRECTION('',(-1.,0.,0.));
#281=DIRECTION('',(1.,0.,0.));
#282=DIRECTION('',(0.,0.707106781186547,-0.707106781186548));
#283=DIRECTION('',(0.,-0.707106781186548,-0.707106781186547));
#284=DIRECTION('',(1.,0.,0.));
#285=DIRECTION('',(0.,1.,-1.5770213417971E-16));
#286=DIRECTION('',(0.,-1.57859836313889E-16,-1.));
#287=DIRECTION('',(0.,0.707106781186549,0.707106781186546));
#288=DIRECTION('',(0.,0.707106781186546,-0.707106781186549));
#289=DIRECTION('',(0.,0.,-1.));
#290=DIRECTION('',(-1.,0.,0.));
#291=DIRECTION('',(0.,0.,1.));
#292=DIRECTION('',(1.,0.,0.));
#293=DIRECTION('',(0.,0.,1.));
#294=DIRECTION('',(1.,0.,0.));
#295=DIRECTION('',(0.,0.,1.));
#296=DIRECTION('',(1.,0.,0.));
#297=DIRECTION('',(0.,0.,1.));
#298=DIRECTION('',(1.,0.,0.));
#299=DIRECTION('',(0.,0.,1.));
#300=DIRECTION('',(1.,0.,0.));
#301=DIRECTION('',(0.,0.,1.));
#302=DIRECTION('',(1.,0.,2.76477493929944E-17));
#303=DIRECTION('',(0.,0.,1.));
#304=DIRECTION('',(1.,0.,0.));
#305=CARTESIAN_POINT('',(0.,0.,0.));
#306=CARTESIAN_POINT('',(0.,0.,-36.));
#307=CARTESIAN_POINT('CRP',(-3.9,0.,-63.));
#308=CARTESIAN_POINT('CIP_DCSYS',(0.,0.,-63.));
#309=CARTESIAN_POINT('',(-3.9,0.,-62.87));
#310=CARTESIAN_POINT('',(-3.9,0.,-60.3133333333334));
#311=CARTESIAN_POINT('',(-3.9,0.,-57.7566666666667));
#312=CARTESIAN_POINT('',(-3.9,0.,-55.2));
#313=CARTESIAN_POINT('',(-2.6,0.,-55.2));
#314=CARTESIAN_POINT('',(-1.3,0.,-55.2));
#315=CARTESIAN_POINT('',(0.,0.,-55.2));
#316=CARTESIAN_POINT('',(0.,0.,-57.8));
#317=CARTESIAN_POINT('',(0.,0.,-60.4));
#318=CARTESIAN_POINT('',(0.,0.,-63.));
#319=CARTESIAN_POINT('',(-1.25666666666667,0.,-63.));
#320=CARTESIAN_POINT('',(-2.51333333333334,0.,-63.));
#321=CARTESIAN_POINT('',(-3.77000000000001,0.,-63.));
#322=CARTESIAN_POINT('',(-3.81333333333334,0.,-62.9566666666667));
#323=CARTESIAN_POINT('',(-3.85666666666668,0.,-62.9133333333333));
#324=CARTESIAN_POINT('',(-3.90000000000001,0.,-62.87));
#325=CARTESIAN_POINT('',(0.,0.,0.));
#326=CARTESIAN_POINT('',(0.,0.,-36.));
#327=CARTESIAN_POINT('',(0.,0.,-63.));
#328=CARTESIAN_POINT('',(0.,0.,-55.1924145433269));
#329=CARTESIAN_POINT('',(3.9,0.,-55.1924145433269));
#330=CARTESIAN_POINT('',(0.,0.,-55.2));
#331=CARTESIAN_POINT('',(-3.9,0.,-55.2));
#332=CARTESIAN_POINT('',(0.,0.,0.));
#333=CARTESIAN_POINT('',(0.,0.,-54.7565246489728));
#334=CARTESIAN_POINT('',(4.,0.,-54.7565246489728));
#335=CARTESIAN_POINT('',(0.,0.,-0.5));
#336=CARTESIAN_POINT('',(-4.,0.,-0.5));
#337=CARTESIAN_POINT('',(0.,0.,-18.15));
#338=CARTESIAN_POINT('',(-2.75499546279118,2.9,-15.25));
#339=CARTESIAN_POINT('',(2.75499546279118,2.9,-15.25));
#340=CARTESIAN_POINT('',(-2.75499546279118,2.9,20.9080749503476));
#341=CARTESIAN_POINT('',(-2.75499546279119,2.9,-20.75));
#342=CARTESIAN_POINT('',(0.,0.,-17.85));
#343=CARTESIAN_POINT('',(2.75499546279119,2.9,-20.75));
#344=CARTESIAN_POINT('',(2.75499546279118,2.9,20.9080749503476));
#345=CARTESIAN_POINT('',(0.,0.,20.9080749503476));
#346=CARTESIAN_POINT('',(0.,0.,-55.1924145433269));
#347=CARTESIAN_POINT('',(0.,0.,0.));
#348=CARTESIAN_POINT('',(-3.5,0.,0.));
#349=CARTESIAN_POINT('',(0.,4.00000000000001,0.));
#350=CARTESIAN_POINT('',(0.,0.,0.));
#351=CARTESIAN_POINT('',(10.,2.9,-15.25));
#352=CARTESIAN_POINT('',(10.,4.,-14.15));
#353=CARTESIAN_POINT('',(10.,2.9,-20.75));
#354=CARTESIAN_POINT('',(10.,2.9,-15.25));
#355=CARTESIAN_POINT('',(10.,4.,-21.85));
#356=CARTESIAN_POINT('',(0.,0.,-55.2));
#357=CARTESIAN_POINT('',(0.,0.,-55.2));
#358=CARTESIAN_POINT('',(3.9,0.,-55.2));
#359=CARTESIAN_POINT('',(0.,0.,-55.2));
#360=CARTESIAN_POINT('',(0.,0.,-62.87));
#361=CARTESIAN_POINT('',(3.90000000000001,0.,-62.87));
#362=CARTESIAN_POINT('',(0.,0.,0.));
#363=CARTESIAN_POINT('',(0.,0.,-63.));
#364=CARTESIAN_POINT('',(3.77,0.,-63.));
#365=CARTESIAN_POINT('',(0.,0.,-62.87));
#366=CARTESIAN_POINT('',(0.,0.,-63.));
#367=MECHANICAL_DESIGN_GEOMETRIC_PRESENTATION_REPRESENTATION('',(#192,#193,
#194,#195,#196,#197,#198,#199,#200),#368);
#368=(
GEOMETRIC_REPRESENTATION_CONTEXT(3)
GLOBAL_UNCERTAINTY_ASSIGNED_CONTEXT((#369))
GLOBAL_UNIT_ASSIGNED_CONTEXT((#375,#371,#370))
REPRESENTATION_CONTEXT('TOOL','TOP_LEVEL_ASSEMBLY_PART')
);
#369=UNCERTAINTY_MEASURE_WITH_UNIT(LENGTH_MEASURE(2.E-5),#375,
'DISTANCE_ACCURACY_VALUE','Maximum Tolerance applied to model');
#370=(
NAMED_UNIT(*)
SI_UNIT($,.STERADIAN.)
SOLID_ANGLE_UNIT()
);
#371=(
CONVERSION_BASED_UNIT('DEGREE',#373)
NAMED_UNIT(#372)
PLANE_ANGLE_UNIT()
);
#372=DIMENSIONAL_EXPONENTS(0.,0.,0.,0.,0.,0.,0.);
#373=PLANE_ANGLE_MEASURE_WITH_UNIT(PLANE_ANGLE_MEASURE(0.0174532925),#374);
#374=(
NAMED_UNIT(*)
PLANE_ANGLE_UNIT()
SI_UNIT($,.RADIAN.)
);
#375=(
LENGTH_UNIT()
NAMED_UNIT(*)
SI_UNIT(.MILLI.,.METRE.)
);
ENDSEC;
END-ISO-10303-21;
