ISO-10303-21;
HEADER;
/* Generated by software containing ST-Developer
 * from STEP Tools, Inc. (www.steptools.com) 
 */
/* OPTION: using custom schema-name function */

FILE_DESCRIPTION(
/* description */ (''),
/* implementation_level */ '2;1');

FILE_NAME(
/* name */ 'TOOL.STP',
/* time_stamp */ '2023-03-20T04:25:25+01:00',
/* author */ (''),
/* organization */ ('SMS'),
/* preprocessor_version */ 'ST-DEVELOPER v16.7',
/* originating_system */ 'SIEMENS PLM Software NX 12.0',
/* authorisation */ '');

FILE_SCHEMA (('AUTOMOTIVE_DESIGN { 1 0 10303 214 3 1 1 1 }'));
ENDSEC;

DATA;
#10=CONSTRUCTIVE_GEOMETRY_REPRESENTATION_RELATIONSHIP(
'supplemental geometry','',#26,#11);
#11=CONSTRUCTIVE_GEOMETRY_REPRESENTATION('supplemental geometry',(#199,
#200,#201),#328);
#12=GEOMETRICALLY_BOUNDED_WIREFRAME_SHAPE_REPRESENTATION('Tool-None',(#27),
#328);
#13=SHAPE_REPRESENTATION_RELATIONSHIP('None',
'relationship between Tool-None and Tool-None',#26,#15);
#14=SHAPE_REPRESENTATION_RELATIONSHIP('None',
'relationship between Tool-None and Tool-None',#26,#12);
#15=ADVANCED_BREP_SHAPE_REPRESENTATION('Tool-None',(#38,#39),#328);
#16=SHAPE_DEFINITION_REPRESENTATION(#17,#26);
#17=PRODUCT_DEFINITION_SHAPE('','',#18);
#18=PRODUCT_DEFINITION(' ','',#20,#19);
#19=PRODUCT_DEFINITION_CONTEXT('part definition',#25,'design');
#20=PRODUCT_DEFINITION_FORMATION_WITH_SPECIFIED_SOURCE(' ',' ',#22,
 .NOT_KNOWN.);
#21=PRODUCT_RELATED_PRODUCT_CATEGORY('part','',(#22));
#22=PRODUCT('Tool','Tool',' ',(#23));
#23=PRODUCT_CONTEXT(' ',#25,'mechanical');
#24=APPLICATION_PROTOCOL_DEFINITION('international standard',
'automotive_design',2010,#25);
#25=APPLICATION_CONTEXT(
'core data for automotive mechanical design processes');
#26=SHAPE_REPRESENTATION('Tool-None',(#198),#328);
#27=GEOMETRIC_CURVE_SET('None',(#272,#273,#274,#166));
#28=SURFACE_STYLE_USAGE(.BOTH.,#30);
#29=SURFACE_STYLE_USAGE(.BOTH.,#31);
#30=SURFACE_SIDE_STYLE('',(#32));
#31=SURFACE_SIDE_STYLE('',(#33));
#32=SURFACE_STYLE_FILL_AREA(#34);
#33=SURFACE_STYLE_FILL_AREA(#35);
#34=FILL_AREA_STYLE('',(#36));
#35=FILL_AREA_STYLE('',(#37));
#36=FILL_AREA_STYLE_COLOUR('',#196);
#37=FILL_AREA_STYLE_COLOUR('',#197);
#38=MANIFOLD_SOLID_BREP('NOCUT',#40);
#39=MANIFOLD_SOLID_BREP('CUT',#41);
#40=CLOSED_SHELL('',(#58,#59,#60,#61,#62,#63,#64));
#41=CLOSED_SHELL('',(#65,#66,#67,#68));
#42=CONICAL_SURFACE('',#209,3.4,45.);
#43=CONICAL_SURFACE('',#218,4.,44.9999999999972);
#44=PLANE('',#208);
#45=PLANE('',#210);
#46=PLANE('',#211);
#47=PLANE('',#212);
#48=PLANE('',#213);
#49=PLANE('',#219);
#50=PLANE('',#220);
#51=FACE_OUTER_BOUND('',#89,.T.);
#52=FACE_OUTER_BOUND('',#92,.T.);
#53=FACE_OUTER_BOUND('',#93,.T.);
#54=FACE_OUTER_BOUND('',#94,.T.);
#55=FACE_OUTER_BOUND('',#95,.T.);
#56=FACE_OUTER_BOUND('',#100,.T.);
#57=FACE_OUTER_BOUND('',#101,.T.);
#58=ADVANCED_FACE('',(#77,#78,#79),#69,.T.);
#59=ADVANCED_FACE('',(#51),#44,.F.);
#60=ADVANCED_FACE('',(#80,#81),#42,.T.);
#61=ADVANCED_FACE('',(#52),#45,.T.);
#62=ADVANCED_FACE('',(#53),#46,.T.);
#63=ADVANCED_FACE('',(#54),#47,.T.);
#64=ADVANCED_FACE('',(#55),#48,.T.);
#65=ADVANCED_FACE('',(#82,#83),#70,.T.);
#66=ADVANCED_FACE('',(#84,#85),#43,.T.);
#67=ADVANCED_FACE('',(#56),#49,.F.);
#68=ADVANCED_FACE('',(#57),#50,.T.);
#69=CYLINDRICAL_SURFACE('',#206,4.);
#70=CYLINDRICAL_SURFACE('',#216,4.);
#71=CIRCLE('',#204,4.);
#72=CIRCLE('',#205,4.);
#73=CIRCLE('',#207,3.4);
#74=CIRCLE('',#214,4.);
#75=CIRCLE('',#215,4.);
#76=CIRCLE('',#217,3.8);
#77=FACE_BOUND('',#86,.T.);
#78=FACE_BOUND('',#87,.T.);
#79=FACE_BOUND('',#88,.T.);
#80=FACE_BOUND('',#90,.T.);
#81=FACE_BOUND('',#91,.T.);
#82=FACE_BOUND('',#96,.T.);
#83=FACE_BOUND('',#97,.T.);
#84=FACE_BOUND('',#98,.T.);
#85=FACE_BOUND('',#99,.T.);
#86=EDGE_LOOP('',(#110,#111,#112,#113));
#87=EDGE_LOOP('',(#114));
#88=EDGE_LOOP('',(#115));
#89=EDGE_LOOP('',(#116));
#90=EDGE_LOOP('',(#117));
#91=EDGE_LOOP('',(#118));
#92=EDGE_LOOP('',(#119,#120));
#93=EDGE_LOOP('',(#121,#122,#123,#124));
#94=EDGE_LOOP('',(#125,#126));
#95=EDGE_LOOP('',(#127));
#96=EDGE_LOOP('',(#128));
#97=EDGE_LOOP('',(#129));
#98=EDGE_LOOP('',(#130));
#99=EDGE_LOOP('',(#131));
#100=EDGE_LOOP('',(#132));
#101=EDGE_LOOP('',(#133));
#102=LINE('',#297,#106);
#103=LINE('',#301,#107);
#104=LINE('',#311,#108);
#105=LINE('',#313,#109);
#106=VECTOR('',#231,1.);
#107=VECTOR('',#234,1.);
#108=VECTOR('',#247,1.);
#109=VECTOR('',#250,1.);
#110=ORIENTED_EDGE('',*,*,#144,.F.);
#111=ORIENTED_EDGE('',*,*,#145,.F.);
#112=ORIENTED_EDGE('',*,*,#146,.F.);
#113=ORIENTED_EDGE('',*,*,#147,.F.);
#114=ORIENTED_EDGE('',*,*,#148,.T.);
#115=ORIENTED_EDGE('',*,*,#149,.F.);
#116=ORIENTED_EDGE('',*,*,#150,.T.);
#117=ORIENTED_EDGE('',*,*,#148,.F.);
#118=ORIENTED_EDGE('',*,*,#150,.F.);
#119=ORIENTED_EDGE('',*,*,#144,.T.);
#120=ORIENTED_EDGE('',*,*,#151,.F.);
#121=ORIENTED_EDGE('',*,*,#145,.T.);
#122=ORIENTED_EDGE('',*,*,#151,.T.);
#123=ORIENTED_EDGE('',*,*,#147,.T.);
#124=ORIENTED_EDGE('',*,*,#152,.F.);
#125=ORIENTED_EDGE('',*,*,#146,.T.);
#126=ORIENTED_EDGE('',*,*,#152,.T.);
#127=ORIENTED_EDGE('',*,*,#149,.T.);
#128=ORIENTED_EDGE('',*,*,#153,.T.);
#129=ORIENTED_EDGE('',*,*,#154,.F.);
#130=ORIENTED_EDGE('',*,*,#155,.T.);
#131=ORIENTED_EDGE('',*,*,#153,.F.);
#132=ORIENTED_EDGE('',*,*,#155,.F.);
#133=ORIENTED_EDGE('',*,*,#154,.T.);
#134=VERTEX_POINT('',#295);
#135=VERTEX_POINT('',#296);
#136=VERTEX_POINT('',#298);
#137=VERTEX_POINT('',#300);
#138=VERTEX_POINT('',#303);
#139=VERTEX_POINT('',#305);
#140=VERTEX_POINT('',#308);
#141=VERTEX_POINT('',#318);
#142=VERTEX_POINT('',#320);
#143=VERTEX_POINT('',#323);
#144=EDGE_CURVE('',#134,#135,#156,.T.);
#145=EDGE_CURVE('',#136,#134,#102,.T.);
#146=EDGE_CURVE('',#137,#136,#157,.T.);
#147=EDGE_CURVE('',#135,#137,#103,.T.);
#148=EDGE_CURVE('',#138,#138,#71,.T.);
#149=EDGE_CURVE('',#139,#139,#72,.T.);
#150=EDGE_CURVE('',#140,#140,#73,.T.);
#151=EDGE_CURVE('',#134,#135,#104,.T.);
#152=EDGE_CURVE('',#136,#137,#105,.T.);
#153=EDGE_CURVE('',#141,#141,#74,.T.);
#154=EDGE_CURVE('',#142,#142,#75,.T.);
#155=EDGE_CURVE('',#143,#143,#76,.T.);
#156=ELLIPSE('',#202,5.65685424949239,4.);
#157=ELLIPSE('',#203,5.65685424949238,4.);
#158=CURVE_STYLE('',#162,POSITIVE_LENGTH_MEASURE(0.18),#168);
#159=CURVE_STYLE('',#163,POSITIVE_LENGTH_MEASURE(0.13),#195);
#160=CURVE_STYLE('',#164,POSITIVE_LENGTH_MEASURE(0.18),#194);
#161=CURVE_STYLE('',#165,POSITIVE_LENGTH_MEASURE(0.18),#194);
#162=DRAUGHTING_PRE_DEFINED_CURVE_FONT('continuous');
#163=DRAUGHTING_PRE_DEFINED_CURVE_FONT('continuous');
#164=DRAUGHTING_PRE_DEFINED_CURVE_FONT('continuous');
#165=DRAUGHTING_PRE_DEFINED_CURVE_FONT('continuous');
#166=B_SPLINE_CURVE_WITH_KNOTS('CUTTING PART LINE',3,(#275,#276,#277,#278,
#279,#280,#281,#282,#283,#284,#285,#286,#287,#288,#289,#290),
 .UNSPECIFIED.,.T.,.F.,(4,3,3,3,3,4),(0.,0.326594287536308,0.494078537552887,
0.829047037590233,0.988157075109962,1.),.UNSPECIFIED.);
#167=DRAUGHTING_PRE_DEFINED_COLOUR('white');
#168=DRAUGHTING_PRE_DEFINED_COLOUR('blue');
#169=PRESENTATION_LAYER_ASSIGNMENT('1','Layer 1',(#272,#273,#274,#166,#199,
#200,#201,#38,#39));
#170=STYLED_ITEM('',(#179),#272);
#171=STYLED_ITEM('',(#180),#273);
#172=STYLED_ITEM('',(#181),#274);
#173=STYLED_ITEM('',(#182),#166);
#174=STYLED_ITEM('',(#183),#199);
#175=STYLED_ITEM('',(#184),#200);
#176=STYLED_ITEM('',(#185),#201);
#177=STYLED_ITEM('',(#186),#38);
#178=STYLED_ITEM('',(#187),#39);
#179=PRESENTATION_STYLE_ASSIGNMENT((#188));
#180=PRESENTATION_STYLE_ASSIGNMENT((#189));
#181=PRESENTATION_STYLE_ASSIGNMENT((#190));
#182=PRESENTATION_STYLE_ASSIGNMENT((#158));
#183=PRESENTATION_STYLE_ASSIGNMENT((#159));
#184=PRESENTATION_STYLE_ASSIGNMENT((#160));
#185=PRESENTATION_STYLE_ASSIGNMENT((#161));
#186=PRESENTATION_STYLE_ASSIGNMENT((#28));
#187=PRESENTATION_STYLE_ASSIGNMENT((#29));
#188=POINT_STYLE('',#191,POSITIVE_LENGTH_MEASURE(3.),#194);
#189=POINT_STYLE('',#192,POSITIVE_LENGTH_MEASURE(3.),#167);
#190=POINT_STYLE('',#193,POSITIVE_LENGTH_MEASURE(3.),#194);
#191=PRE_DEFINED_POINT_MARKER_SYMBOL('plus');
#192=PRE_DEFINED_POINT_MARKER_SYMBOL('plus');
#193=PRE_DEFINED_POINT_MARKER_SYMBOL('plus');
#194=COLOUR_RGB('Medium Maroon',0.6,0.4,0.4);
#195=COLOUR_RGB('Silver Gray',0.6,0.6,0.6);
#196=COLOUR_RGB('TLS_NOCUT',0.498023956664378,0.498023956664378,0.498023956664378);
#197=COLOUR_RGB('TLS_CUT',0.8,0.8,0.8);
#198=AXIS2_PLACEMENT_3D('',#271,#221,#222);
#199=AXIS2_PLACEMENT_3D('PCS',#291,#223,#224);
#200=AXIS2_PLACEMENT_3D('MCS',#292,#225,#226);
#201=AXIS2_PLACEMENT_3D('CIP',#293,#227,#228);
#202=AXIS2_PLACEMENT_3D('',#294,#229,#230);
#203=AXIS2_PLACEMENT_3D('',#299,#232,#233);
#204=AXIS2_PLACEMENT_3D('',#302,#235,#236);
#205=AXIS2_PLACEMENT_3D('',#304,#237,#238);
#206=AXIS2_PLACEMENT_3D('',#306,#239,#240);
#207=AXIS2_PLACEMENT_3D('',#307,#241,#242);
#208=AXIS2_PLACEMENT_3D('',#309,#243,#244);
#209=AXIS2_PLACEMENT_3D('',#310,#245,#246);
#210=AXIS2_PLACEMENT_3D('',#312,#248,#249);
#211=AXIS2_PLACEMENT_3D('',#314,#251,#252);
#212=AXIS2_PLACEMENT_3D('',#315,#253,#254);
#213=AXIS2_PLACEMENT_3D('',#316,#255,#256);
#214=AXIS2_PLACEMENT_3D('',#317,#257,#258);
#215=AXIS2_PLACEMENT_3D('',#319,#259,#260);
#216=AXIS2_PLACEMENT_3D('',#321,#261,#262);
#217=AXIS2_PLACEMENT_3D('',#322,#263,#264);
#218=AXIS2_PLACEMENT_3D('',#324,#265,#266);
#219=AXIS2_PLACEMENT_3D('',#325,#267,#268);
#220=AXIS2_PLACEMENT_3D('',#326,#269,#270);
#221=DIRECTION('',(0.,0.,1.));
#222=DIRECTION('',(1.,0.,0.));
#223=DIRECTION('',(0.,0.,1.));
#224=DIRECTION('',(1.,0.,0.));
#225=DIRECTION('',(0.,0.,1.));
#226=DIRECTION('',(1.,0.,0.));
#227=DIRECTION('',(0.,0.,1.));
#228=DIRECTION('',(1.,0.,0.));
#229=DIRECTION('',(0.,0.707106781186549,-0.707106781186546));
#230=DIRECTION('',(0.,0.707106781186546,0.707106781186549));
#231=DIRECTION('',(0.,0.,1.));
#232=DIRECTION('',(0.,0.707106781186548,0.707106781186547));
#233=DIRECTION('',(0.,-0.707106781186547,0.707106781186548));
#234=DIRECTION('',(0.,0.,-1.));
#235=DIRECTION('',(0.,0.,-1.));
#236=DIRECTION('',(-1.,0.,0.));
#237=DIRECTION('',(0.,0.,-1.));
#238=DIRECTION('',(-1.,0.,0.));
#239=DIRECTION('',(0.,0.,1.));
#240=DIRECTION('',(1.,0.,0.));
#241=DIRECTION('',(0.,0.,1.));
#242=DIRECTION('',(-1.,0.,0.));
#243=DIRECTION('',(0.,0.,-1.));
#244=DIRECTION('',(-1.,0.,0.));
#245=DIRECTION('',(0.,0.,-1.));
#246=DIRECTION('',(-1.,0.,0.));
#247=DIRECTION('',(1.,0.,0.));
#248=DIRECTION('',(0.,0.707106781186549,-0.707106781186546));
#249=DIRECTION('',(0.,-0.707106781186546,-0.707106781186549));
#250=DIRECTION('',(1.,0.,0.));
#251=DIRECTION('',(0.,1.,-1.5770213417971E-16));
#252=DIRECTION('',(0.,-1.57859836313889E-16,-1.));
#253=DIRECTION('',(0.,0.707106781186548,0.707106781186547));
#254=DIRECTION('',(0.,0.707106781186547,-0.707106781186548));
#255=DIRECTION('',(0.,0.,-1.));
#256=DIRECTION('',(-1.,0.,0.));
#257=DIRECTION('',(0.,0.,1.));
#258=DIRECTION('',(1.,0.,0.));
#259=DIRECTION('',(0.,0.,1.));
#260=DIRECTION('',(1.,0.,0.));
#261=DIRECTION('',(0.,0.,1.));
#262=DIRECTION('',(1.,0.,0.));
#263=DIRECTION('',(0.,0.,1.));
#264=DIRECTION('',(1.,0.,0.));
#265=DIRECTION('',(0.,0.,1.));
#266=DIRECTION('',(1.,0.,1.38224978165496E-17));
#267=DIRECTION('',(0.,0.,1.));
#268=DIRECTION('',(1.,0.,0.));
#269=DIRECTION('',(0.,0.,1.));
#270=DIRECTION('',(1.,0.,0.));
#271=CARTESIAN_POINT('',(0.,0.,0.));
#272=CARTESIAN_POINT('',(0.,0.,-36.));
#273=CARTESIAN_POINT('CRP',(-4.,0.,-63.));
#274=CARTESIAN_POINT('CIP_DCSYS',(0.,0.,-63.));
#275=CARTESIAN_POINT('',(-4.,0.,-62.8));
#276=CARTESIAN_POINT('',(-4.,0.,-60.2));
#277=CARTESIAN_POINT('',(-4.,0.,-57.6));
#278=CARTESIAN_POINT('',(-4.,0.,-55.));
#279=CARTESIAN_POINT('',(-2.66666666666667,0.,-55.));
#280=CARTESIAN_POINT('',(-1.33333333333333,0.,-55.));
#281=CARTESIAN_POINT('',(0.,0.,-55.));
#282=CARTESIAN_POINT('',(0.,0.,-57.6666666666667));
#283=CARTESIAN_POINT('',(0.,0.,-60.3333333333333));
#284=CARTESIAN_POINT('',(0.,0.,-63.));
#285=CARTESIAN_POINT('',(-1.26666666666667,0.,-63.));
#286=CARTESIAN_POINT('',(-2.53333333333334,0.,-63.));
#287=CARTESIAN_POINT('',(-3.8,0.,-63.));
#288=CARTESIAN_POINT('',(-3.86666666666667,0.,-62.9333333333333));
#289=CARTESIAN_POINT('',(-3.93333333333334,0.,-62.8666666666667));
#290=CARTESIAN_POINT('',(-4.,0.,-62.8));
#291=CARTESIAN_POINT('',(0.,0.,0.));
#292=CARTESIAN_POINT('',(0.,0.,-36.));
#293=CARTESIAN_POINT('',(0.,0.,-63.));
#294=CARTESIAN_POINT('',(0.,0.,-18.15));
#295=CARTESIAN_POINT('',(-2.75499546279118,2.9,-15.25));
#296=CARTESIAN_POINT('',(2.75499546279118,2.9,-15.25));
#297=CARTESIAN_POINT('',(-2.75499546279118,2.9,-4.57336189121158E-16));
#298=CARTESIAN_POINT('',(-2.75499546279119,2.9,-20.75));
#299=CARTESIAN_POINT('',(0.,0.,-17.85));
#300=CARTESIAN_POINT('',(2.75499546279119,2.9,-20.75));
#301=CARTESIAN_POINT('',(2.75499546279118,2.9,-4.57336189121158E-16));
#302=CARTESIAN_POINT('',(0.,0.,-0.6));
#303=CARTESIAN_POINT('',(-4.,0.,-0.6));
#304=CARTESIAN_POINT('',(0.,0.,-55.));
#305=CARTESIAN_POINT('',(-4.,0.,-55.));
#306=CARTESIAN_POINT('',(0.,0.,0.));
#307=CARTESIAN_POINT('',(0.,0.,0.));
#308=CARTESIAN_POINT('',(-3.4,0.,0.));
#309=CARTESIAN_POINT('',(0.,4.00000000000001,0.));
#310=CARTESIAN_POINT('',(0.,0.,0.));
#311=CARTESIAN_POINT('',(10.,2.9,-15.25));
#312=CARTESIAN_POINT('',(10.,4.,-14.15));
#313=CARTESIAN_POINT('',(10.,2.9,-20.75));
#314=CARTESIAN_POINT('',(10.,2.9,-15.25));
#315=CARTESIAN_POINT('',(10.,4.,-21.85));
#316=CARTESIAN_POINT('',(0.,0.,-55.));
#317=CARTESIAN_POINT('',(0.,0.,-62.8));
#318=CARTESIAN_POINT('',(4.,0.,-62.8));
#319=CARTESIAN_POINT('',(0.,0.,-55.));
#320=CARTESIAN_POINT('',(4.,0.,-55.));
#321=CARTESIAN_POINT('',(0.,0.,0.));
#322=CARTESIAN_POINT('',(0.,0.,-63.));
#323=CARTESIAN_POINT('',(3.8,0.,-63.));
#324=CARTESIAN_POINT('',(0.,0.,-62.8));
#325=CARTESIAN_POINT('',(0.,0.,-63.));
#326=CARTESIAN_POINT('',(0.,0.,-55.));
#327=MECHANICAL_DESIGN_GEOMETRIC_PRESENTATION_REPRESENTATION('',(#170,#171,
#172,#173,#174,#175,#176,#177,#178),#328);
#328=(
GEOMETRIC_REPRESENTATION_CONTEXT(3)
GLOBAL_UNCERTAINTY_ASSIGNED_CONTEXT((#329))
GLOBAL_UNIT_ASSIGNED_CONTEXT((#335,#331,#330))
REPRESENTATION_CONTEXT('TOOL','TOP_LEVEL_ASSEMBLY_PART')
);
#329=UNCERTAINTY_MEASURE_WITH_UNIT(LENGTH_MEASURE(2.E-5),#335,
'DISTANCE_ACCURACY_VALUE','Maximum Tolerance applied to model');
#330=(
NAMED_UNIT(*)
SI_UNIT($,.STERADIAN.)
SOLID_ANGLE_UNIT()
);
#331=(
CONVERSION_BASED_UNIT('DEGREE',#333)
NAMED_UNIT(#332)
PLANE_ANGLE_UNIT()
);
#332=DIMENSIONAL_EXPONENTS(0.,0.,0.,0.,0.,0.,0.);
#333=PLANE_ANGLE_MEASURE_WITH_UNIT(PLANE_ANGLE_MEASURE(0.0174532925),#334);
#334=(
NAMED_UNIT(*)
PLANE_ANGLE_UNIT()
SI_UNIT($,.RADIAN.)
);
#335=(
LENGTH_UNIT()
NAMED_UNIT(*)
SI_UNIT(.MILLI.,.METRE.)
);
ENDSEC;
END-ISO-10303-21;
