ISO-10303-21;
HEADER;
/* Generated by software containing ST-Developer
 * from STEP Tools, Inc. (www.steptools.com) 
 */
/* OPTION: using custom schema-name function */

FILE_DESCRIPTION(
/* description */ (''),
/* implementation_level */ '2;1');

FILE_NAME(
/* name */ 'TOOL.STP',
/* time_stamp */ '2022-12-04T05:48:10+01:00',
/* author */ (''),
/* organization */ ('SMS'),
/* preprocessor_version */ 'ST-DEVELOPER v16.7',
/* originating_system */ 'SIEMENS PLM Software NX 12.0',
/* authorisation */ '');

FILE_SCHEMA (('AUTOMOTIVE_DESIGN { 1 0 10303 214 3 1 1 1 }'));
ENDSEC;

DATA;
#10=CONSTRUCTIVE_GEOMETRY_REPRESENTATION_RELATIONSHIP(
'supplemental geometry','',#26,#11);
#11=CONSTRUCTIVE_GEOMETRY_REPRESENTATION('supplemental geometry',(#351,
#352,#353),#608);
#12=GEOMETRICALLY_BOUNDED_WIREFRAME_SHAPE_REPRESENTATION('Tool-None',(#27),
#608);
#13=SHAPE_REPRESENTATION_RELATIONSHIP('None',
'relationship between Tool-None and Tool-None',#26,#15);
#14=SHAPE_REPRESENTATION_RELATIONSHIP('None',
'relationship between Tool-None and Tool-None',#26,#12);
#15=ADVANCED_BREP_SHAPE_REPRESENTATION('Tool-None',(#39,#40),#608);
#16=SHAPE_DEFINITION_REPRESENTATION(#17,#26);
#17=PRODUCT_DEFINITION_SHAPE('','',#18);
#18=PRODUCT_DEFINITION(' ','',#20,#19);
#19=PRODUCT_DEFINITION_CONTEXT('part definition',#25,'design');
#20=PRODUCT_DEFINITION_FORMATION_WITH_SPECIFIED_SOURCE(' ',' ',#22,
 .NOT_KNOWN.);
#21=PRODUCT_RELATED_PRODUCT_CATEGORY('part','',(#22));
#22=PRODUCT('Tool','Tool',' ',(#23));
#23=PRODUCT_CONTEXT(' ',#25,'mechanical');
#24=APPLICATION_PROTOCOL_DEFINITION('international standard',
'automotive_design',2010,#25);
#25=APPLICATION_CONTEXT(
'core data for automotive mechanical design processes');
#26=SHAPE_REPRESENTATION('Tool-None',(#350),#608);
#27=GEOMETRIC_CURVE_SET('None',(#486,#487,#488,#314));
#28=VERTEX_LOOP('',#259);
#29=SURFACE_STYLE_USAGE(.BOTH.,#31);
#30=SURFACE_STYLE_USAGE(.BOTH.,#32);
#31=SURFACE_SIDE_STYLE('',(#33));
#32=SURFACE_SIDE_STYLE('',(#34));
#33=SURFACE_STYLE_FILL_AREA(#35);
#34=SURFACE_STYLE_FILL_AREA(#36);
#35=FILL_AREA_STYLE('',(#37));
#36=FILL_AREA_STYLE('',(#38));
#37=FILL_AREA_STYLE_COLOUR('',#348);
#38=FILL_AREA_STYLE_COLOUR('',#349);
#39=MANIFOLD_SOLID_BREP('NOCUT',#41);
#40=MANIFOLD_SOLID_BREP('CUT',#42);
#41=CLOSED_SHELL('',(#98,#99,#100,#101,#102,#103,#104,#105,#106,#107,#108,
#109,#110,#111,#112,#113));
#42=CLOSED_SHELL('',(#114,#115,#116,#117));
#43=PLANE('',#373);
#44=PLANE('',#375);
#45=PLANE('',#376);
#46=PLANE('',#377);
#47=PLANE('',#378);
#48=PLANE('',#379);
#49=PLANE('',#380);
#50=PLANE('',#381);
#51=PLANE('',#382);
#52=PLANE('',#383);
#53=PLANE('',#385);
#54=FACE_OUTER_BOUND('',#150,.T.);
#55=FACE_OUTER_BOUND('',#153,.T.);
#56=FACE_OUTER_BOUND('',#154,.T.);
#57=FACE_OUTER_BOUND('',#155,.T.);
#58=FACE_OUTER_BOUND('',#156,.T.);
#59=FACE_OUTER_BOUND('',#157,.T.);
#60=FACE_OUTER_BOUND('',#158,.T.);
#61=FACE_OUTER_BOUND('',#159,.T.);
#62=FACE_OUTER_BOUND('',#160,.T.);
#63=FACE_OUTER_BOUND('',#161,.T.);
#64=FACE_OUTER_BOUND('',#162,.T.);
#65=TOROIDAL_SURFACE('',#372,2.5,0.5);
#66=ELLIPSE('',#364,2.71529003975634,1.92);
#67=ELLIPSE('',#365,2.71529003975634,1.92);
#68=ELLIPSE('',#366,2.71529003975634,1.92);
#69=ELLIPSE('',#367,2.71529003975634,1.92);
#70=LINE('',#554,#82);
#71=LINE('',#558,#83);
#72=LINE('',#559,#84);
#73=LINE('',#563,#85);
#74=LINE('',#564,#86);
#75=LINE('',#568,#87);
#76=LINE('',#569,#88);
#77=LINE('',#573,#89);
#78=LINE('',#583,#90);
#79=LINE('',#586,#91);
#80=LINE('',#589,#92);
#81=LINE('',#592,#93);
#82=VECTOR('',#419,1.);
#83=VECTOR('',#422,1.);
#84=VECTOR('',#423,1.);
#85=VECTOR('',#426,1.);
#86=VECTOR('',#427,1.);
#87=VECTOR('',#430,1.);
#88=VECTOR('',#431,1.);
#89=VECTOR('',#434,1.);
#90=VECTOR('',#449,1.);
#91=VECTOR('',#454,1.);
#92=VECTOR('',#459,1.);
#93=VECTOR('',#464,1.);
#94=CONICAL_SURFACE('',#362,0.919999999999999,45.);
#95=CONICAL_SURFACE('',#374,3.2,45.);
#96=CONICAL_SURFACE('',#389,2.12750765502279,44.9999999999999);
#97=CONICAL_SURFACE('',#390,1.25906934875136,8.55683834607117);
#98=ADVANCED_FACE('',(#122,#123),#118,.T.);
#99=ADVANCED_FACE('',(#124,#125),#94,.T.);
#100=ADVANCED_FACE('',(#126,#127),#119,.T.);
#101=ADVANCED_FACE('',(#128,#129),#120,.T.);
#102=ADVANCED_FACE('',(#130,#131),#65,.F.);
#103=ADVANCED_FACE('',(#54),#43,.F.);
#104=ADVANCED_FACE('',(#132,#133),#95,.T.);
#105=ADVANCED_FACE('',(#55),#44,.T.);
#106=ADVANCED_FACE('',(#56),#45,.T.);
#107=ADVANCED_FACE('',(#57),#46,.T.);
#108=ADVANCED_FACE('',(#58),#47,.T.);
#109=ADVANCED_FACE('',(#59),#48,.T.);
#110=ADVANCED_FACE('',(#60),#49,.T.);
#111=ADVANCED_FACE('',(#61),#50,.T.);
#112=ADVANCED_FACE('',(#62),#51,.T.);
#113=ADVANCED_FACE('',(#63),#52,.T.);
#114=ADVANCED_FACE('',(#64),#53,.T.);
#115=ADVANCED_FACE('',(#134,#135),#121,.T.);
#116=ADVANCED_FACE('',(#136,#137),#96,.T.);
#117=ADVANCED_FACE('',(#138,#139),#97,.T.);
#118=CYLINDRICAL_SURFACE('',#356,2.0475076550228);
#119=CYLINDRICAL_SURFACE('',#368,1.92);
#120=CYLINDRICAL_SURFACE('',#371,2.);
#121=CYLINDRICAL_SURFACE('',#387,2.0475076550228);
#122=FACE_BOUND('',#140,.T.);
#123=FACE_BOUND('',#141,.T.);
#124=FACE_BOUND('',#142,.T.);
#125=FACE_BOUND('',#143,.T.);
#126=FACE_BOUND('',#144,.T.);
#127=FACE_BOUND('',#145,.T.);
#128=FACE_BOUND('',#146,.T.);
#129=FACE_BOUND('',#147,.T.);
#130=FACE_BOUND('',#148,.T.);
#131=FACE_BOUND('',#149,.T.);
#132=FACE_BOUND('',#151,.T.);
#133=FACE_BOUND('',#152,.T.);
#134=FACE_BOUND('',#163,.T.);
#135=FACE_BOUND('',#164,.T.);
#136=FACE_BOUND('',#165,.T.);
#137=FACE_BOUND('',#28,.T.);
#138=FACE_BOUND('',#166,.T.);
#139=FACE_BOUND('',#167,.T.);
#140=EDGE_LOOP('',(#168));
#141=EDGE_LOOP('',(#169));
#142=EDGE_LOOP('',(#170));
#143=EDGE_LOOP('',(#171,#172,#173,#174,#175,#176,#177,#178));
#144=EDGE_LOOP('',(#179));
#145=EDGE_LOOP('',(#180,#181,#182,#183,#184,#185,#186,#187,#188,#189,#190,
#191,#192,#193,#194,#195));
#146=EDGE_LOOP('',(#196));
#147=EDGE_LOOP('',(#197));
#148=EDGE_LOOP('',(#198));
#149=EDGE_LOOP('',(#199));
#150=EDGE_LOOP('',(#200));
#151=EDGE_LOOP('',(#201));
#152=EDGE_LOOP('',(#202));
#153=EDGE_LOOP('',(#203,#204,#205,#206));
#154=EDGE_LOOP('',(#207,#208));
#155=EDGE_LOOP('',(#209,#210,#211,#212));
#156=EDGE_LOOP('',(#213,#214));
#157=EDGE_LOOP('',(#215,#216));
#158=EDGE_LOOP('',(#217,#218,#219,#220));
#159=EDGE_LOOP('',(#221,#222,#223,#224));
#160=EDGE_LOOP('',(#225,#226));
#161=EDGE_LOOP('',(#227));
#162=EDGE_LOOP('',(#228));
#163=EDGE_LOOP('',(#229));
#164=EDGE_LOOP('',(#230));
#165=EDGE_LOOP('',(#231));
#166=EDGE_LOOP('',(#232));
#167=EDGE_LOOP('',(#233));
#168=ORIENTED_EDGE('',*,*,#260,.T.);
#169=ORIENTED_EDGE('',*,*,#261,.T.);
#170=ORIENTED_EDGE('',*,*,#262,.F.);
#171=ORIENTED_EDGE('',*,*,#263,.T.);
#172=ORIENTED_EDGE('',*,*,#264,.T.);
#173=ORIENTED_EDGE('',*,*,#265,.T.);
#174=ORIENTED_EDGE('',*,*,#266,.T.);
#175=ORIENTED_EDGE('',*,*,#267,.T.);
#176=ORIENTED_EDGE('',*,*,#268,.T.);
#177=ORIENTED_EDGE('',*,*,#269,.T.);
#178=ORIENTED_EDGE('',*,*,#270,.T.);
#179=ORIENTED_EDGE('',*,*,#271,.F.);
#180=ORIENTED_EDGE('',*,*,#272,.F.);
#181=ORIENTED_EDGE('',*,*,#273,.F.);
#182=ORIENTED_EDGE('',*,*,#274,.F.);
#183=ORIENTED_EDGE('',*,*,#263,.F.);
#184=ORIENTED_EDGE('',*,*,#275,.F.);
#185=ORIENTED_EDGE('',*,*,#276,.F.);
#186=ORIENTED_EDGE('',*,*,#277,.F.);
#187=ORIENTED_EDGE('',*,*,#269,.F.);
#188=ORIENTED_EDGE('',*,*,#278,.F.);
#189=ORIENTED_EDGE('',*,*,#279,.F.);
#190=ORIENTED_EDGE('',*,*,#280,.F.);
#191=ORIENTED_EDGE('',*,*,#267,.F.);
#192=ORIENTED_EDGE('',*,*,#281,.F.);
#193=ORIENTED_EDGE('',*,*,#282,.F.);
#194=ORIENTED_EDGE('',*,*,#283,.F.);
#195=ORIENTED_EDGE('',*,*,#265,.F.);
#196=ORIENTED_EDGE('',*,*,#284,.T.);
#197=ORIENTED_EDGE('',*,*,#285,.T.);
#198=ORIENTED_EDGE('',*,*,#284,.F.);
#199=ORIENTED_EDGE('',*,*,#260,.F.);
#200=ORIENTED_EDGE('',*,*,#262,.T.);
#201=ORIENTED_EDGE('',*,*,#271,.T.);
#202=ORIENTED_EDGE('',*,*,#285,.F.);
#203=ORIENTED_EDGE('',*,*,#281,.T.);
#204=ORIENTED_EDGE('',*,*,#266,.F.);
#205=ORIENTED_EDGE('',*,*,#283,.T.);
#206=ORIENTED_EDGE('',*,*,#286,.F.);
#207=ORIENTED_EDGE('',*,*,#282,.T.);
#208=ORIENTED_EDGE('',*,*,#286,.T.);
#209=ORIENTED_EDGE('',*,*,#275,.T.);
#210=ORIENTED_EDGE('',*,*,#270,.F.);
#211=ORIENTED_EDGE('',*,*,#277,.T.);
#212=ORIENTED_EDGE('',*,*,#287,.F.);
#213=ORIENTED_EDGE('',*,*,#276,.T.);
#214=ORIENTED_EDGE('',*,*,#287,.T.);
#215=ORIENTED_EDGE('',*,*,#279,.T.);
#216=ORIENTED_EDGE('',*,*,#288,.T.);
#217=ORIENTED_EDGE('',*,*,#278,.T.);
#218=ORIENTED_EDGE('',*,*,#268,.F.);
#219=ORIENTED_EDGE('',*,*,#280,.T.);
#220=ORIENTED_EDGE('',*,*,#288,.F.);
#221=ORIENTED_EDGE('',*,*,#272,.T.);
#222=ORIENTED_EDGE('',*,*,#264,.F.);
#223=ORIENTED_EDGE('',*,*,#274,.T.);
#224=ORIENTED_EDGE('',*,*,#289,.F.);
#225=ORIENTED_EDGE('',*,*,#273,.T.);
#226=ORIENTED_EDGE('',*,*,#289,.T.);
#227=ORIENTED_EDGE('',*,*,#261,.F.);
#228=ORIENTED_EDGE('',*,*,#290,.F.);
#229=ORIENTED_EDGE('',*,*,#291,.T.);
#230=ORIENTED_EDGE('',*,*,#290,.T.);
#231=ORIENTED_EDGE('',*,*,#292,.F.);
#232=ORIENTED_EDGE('',*,*,#292,.T.);
#233=ORIENTED_EDGE('',*,*,#291,.F.);
#234=VERTEX_POINT('',#509);
#235=VERTEX_POINT('',#511);
#236=VERTEX_POINT('',#514);
#237=VERTEX_POINT('',#516);
#238=VERTEX_POINT('',#517);
#239=VERTEX_POINT('',#524);
#240=VERTEX_POINT('',#526);
#241=VERTEX_POINT('',#533);
#242=VERTEX_POINT('',#535);
#243=VERTEX_POINT('',#542);
#244=VERTEX_POINT('',#544);
#245=VERTEX_POINT('',#553);
#246=VERTEX_POINT('',#555);
#247=VERTEX_POINT('',#557);
#248=VERTEX_POINT('',#560);
#249=VERTEX_POINT('',#562);
#250=VERTEX_POINT('',#565);
#251=VERTEX_POINT('',#567);
#252=VERTEX_POINT('',#570);
#253=VERTEX_POINT('',#572);
#254=VERTEX_POINT('',#576);
#255=VERTEX_POINT('',#578);
#256=VERTEX_POINT('',#597);
#257=VERTEX_POINT('',#600);
#258=VERTEX_POINT('',#603);
#259=VERTEX_POINT('',#604);
#260=EDGE_CURVE('',#234,#234,#293,.T.);
#261=EDGE_CURVE('',#235,#235,#294,.T.);
#262=EDGE_CURVE('',#236,#236,#295,.T.);
#263=EDGE_CURVE('',#237,#238,#296,.T.);
#264=EDGE_CURVE('',#238,#239,#315,.T.);
#265=EDGE_CURVE('',#239,#240,#297,.T.);
#266=EDGE_CURVE('',#240,#241,#316,.T.);
#267=EDGE_CURVE('',#241,#242,#298,.T.);
#268=EDGE_CURVE('',#242,#243,#317,.T.);
#269=EDGE_CURVE('',#243,#244,#299,.T.);
#270=EDGE_CURVE('',#244,#237,#318,.T.);
#271=EDGE_CURVE('',#245,#245,#300,.T.);
#272=EDGE_CURVE('',#246,#239,#70,.T.);
#273=EDGE_CURVE('',#247,#246,#66,.T.);
#274=EDGE_CURVE('',#238,#247,#71,.T.);
#275=EDGE_CURVE('',#248,#237,#72,.T.);
#276=EDGE_CURVE('',#249,#248,#67,.T.);
#277=EDGE_CURVE('',#244,#249,#73,.T.);
#278=EDGE_CURVE('',#250,#243,#74,.T.);
#279=EDGE_CURVE('',#251,#250,#68,.T.);
#280=EDGE_CURVE('',#242,#251,#75,.T.);
#281=EDGE_CURVE('',#252,#241,#76,.T.);
#282=EDGE_CURVE('',#253,#252,#69,.T.);
#283=EDGE_CURVE('',#240,#253,#77,.T.);
#284=EDGE_CURVE('',#254,#254,#301,.T.);
#285=EDGE_CURVE('',#255,#255,#302,.T.);
#286=EDGE_CURVE('',#252,#253,#78,.T.);
#287=EDGE_CURVE('',#248,#249,#79,.T.);
#288=EDGE_CURVE('',#250,#251,#80,.T.);
#289=EDGE_CURVE('',#246,#247,#81,.T.);
#290=EDGE_CURVE('',#256,#256,#303,.T.);
#291=EDGE_CURVE('',#257,#257,#304,.T.);
#292=EDGE_CURVE('',#258,#258,#305,.T.);
#293=CIRCLE('',#354,2.0475076550228);
#294=CIRCLE('',#355,2.0475076550228);
#295=CIRCLE('',#357,0.919999999999999);
#296=CIRCLE('',#358,1.92);
#297=CIRCLE('',#359,1.92);
#298=CIRCLE('',#360,1.92);
#299=CIRCLE('',#361,1.92);
#300=CIRCLE('',#363,1.92);
#301=CIRCLE('',#369,2.);
#302=CIRCLE('',#370,2.);
#303=CIRCLE('',#384,2.0475076550228);
#304=CIRCLE('',#386,2.0475076550228);
#305=CIRCLE('',#388,1.59896529786931);
#306=CURVE_STYLE('',#310,POSITIVE_LENGTH_MEASURE(0.18),#320);
#307=CURVE_STYLE('',#311,POSITIVE_LENGTH_MEASURE(0.13),#347);
#308=CURVE_STYLE('',#312,POSITIVE_LENGTH_MEASURE(0.18),#346);
#309=CURVE_STYLE('',#313,POSITIVE_LENGTH_MEASURE(0.18),#346);
#310=DRAUGHTING_PRE_DEFINED_CURVE_FONT('continuous');
#311=DRAUGHTING_PRE_DEFINED_CURVE_FONT('continuous');
#312=DRAUGHTING_PRE_DEFINED_CURVE_FONT('continuous');
#313=DRAUGHTING_PRE_DEFINED_CURVE_FONT('continuous');
#314=B_SPLINE_CURVE_WITH_KNOTS('CUTTING PART LINE',3,(#489,#490,#491,#492,
#493,#494,#495,#496,#497,#498,#499,#500,#501,#502,#503,#504),
 .UNSPECIFIED.,.T.,.F.,(4,3,3,3,3,4),(0.,0.0506515736691045,0.516718523695166,
0.572658392682113,0.647233826573232,1.),.UNSPECIFIED.);
#315=B_SPLINE_CURVE_WITH_KNOTS('',3,(#518,#519,#520,#521,#522,#523),
 .UNSPECIFIED.,.F.,.F.,(4,2,4),(0.,0.5,1.),.UNSPECIFIED.);
#316=B_SPLINE_CURVE_WITH_KNOTS('',3,(#527,#528,#529,#530,#531,#532),
 .UNSPECIFIED.,.F.,.F.,(4,2,4),(0.,0.5,1.),.UNSPECIFIED.);
#317=B_SPLINE_CURVE_WITH_KNOTS('',3,(#536,#537,#538,#539,#540,#541),
 .UNSPECIFIED.,.F.,.F.,(4,2,4),(0.,0.5,1.),.UNSPECIFIED.);
#318=B_SPLINE_CURVE_WITH_KNOTS('',3,(#545,#546,#547,#548,#549,#550),
 .UNSPECIFIED.,.F.,.F.,(4,2,4),(0.,0.5,1.),.UNSPECIFIED.);
#319=DRAUGHTING_PRE_DEFINED_COLOUR('white');
#320=DRAUGHTING_PRE_DEFINED_COLOUR('blue');
#321=PRESENTATION_LAYER_ASSIGNMENT('1','Layer 1',(#486,#487,#488,#314,#351,
#352,#353,#39,#40));
#322=STYLED_ITEM('',(#331),#486);
#323=STYLED_ITEM('',(#332),#487);
#324=STYLED_ITEM('',(#333),#488);
#325=STYLED_ITEM('',(#334),#314);
#326=STYLED_ITEM('',(#335),#351);
#327=STYLED_ITEM('',(#336),#352);
#328=STYLED_ITEM('',(#337),#353);
#329=STYLED_ITEM('',(#338),#39);
#330=STYLED_ITEM('',(#339),#40);
#331=PRESENTATION_STYLE_ASSIGNMENT((#340));
#332=PRESENTATION_STYLE_ASSIGNMENT((#341));
#333=PRESENTATION_STYLE_ASSIGNMENT((#342));
#334=PRESENTATION_STYLE_ASSIGNMENT((#306));
#335=PRESENTATION_STYLE_ASSIGNMENT((#307));
#336=PRESENTATION_STYLE_ASSIGNMENT((#308));
#337=PRESENTATION_STYLE_ASSIGNMENT((#309));
#338=PRESENTATION_STYLE_ASSIGNMENT((#29));
#339=PRESENTATION_STYLE_ASSIGNMENT((#30));
#340=POINT_STYLE('',#343,POSITIVE_LENGTH_MEASURE(3.),#346);
#341=POINT_STYLE('',#344,POSITIVE_LENGTH_MEASURE(3.),#319);
#342=POINT_STYLE('',#345,POSITIVE_LENGTH_MEASURE(3.),#346);
#343=PRE_DEFINED_POINT_MARKER_SYMBOL('plus');
#344=PRE_DEFINED_POINT_MARKER_SYMBOL('plus');
#345=PRE_DEFINED_POINT_MARKER_SYMBOL('plus');
#346=COLOUR_RGB('Medium Maroon',0.6,0.4,0.4);
#347=COLOUR_RGB('Silver Gray',0.6,0.6,0.6);
#348=COLOUR_RGB('TLS_NOCUT',0.498023956664378,0.498023956664378,0.498023956664378);
#349=COLOUR_RGB('TLS_CUT',0.8,0.8,0.8);
#350=AXIS2_PLACEMENT_3D('',#485,#391,#392);
#351=AXIS2_PLACEMENT_3D('PCS',#505,#393,#394);
#352=AXIS2_PLACEMENT_3D('MCS',#506,#395,#396);
#353=AXIS2_PLACEMENT_3D('CIP',#507,#397,#398);
#354=AXIS2_PLACEMENT_3D('',#508,#399,#400);
#355=AXIS2_PLACEMENT_3D('',#510,#401,#402);
#356=AXIS2_PLACEMENT_3D('',#512,#403,#404);
#357=AXIS2_PLACEMENT_3D('',#513,#405,#406);
#358=AXIS2_PLACEMENT_3D('',#515,#407,#408);
#359=AXIS2_PLACEMENT_3D('',#525,#409,#410);
#360=AXIS2_PLACEMENT_3D('',#534,#411,#412);
#361=AXIS2_PLACEMENT_3D('',#543,#413,#414);
#362=AXIS2_PLACEMENT_3D('',#551,#415,#416);
#363=AXIS2_PLACEMENT_3D('',#552,#417,#418);
#364=AXIS2_PLACEMENT_3D('',#556,#420,#421);
#365=AXIS2_PLACEMENT_3D('',#561,#424,#425);
#366=AXIS2_PLACEMENT_3D('',#566,#428,#429);
#367=AXIS2_PLACEMENT_3D('',#571,#432,#433);
#368=AXIS2_PLACEMENT_3D('',#574,#435,#436);
#369=AXIS2_PLACEMENT_3D('',#575,#437,#438);
#370=AXIS2_PLACEMENT_3D('',#577,#439,#440);
#371=AXIS2_PLACEMENT_3D('',#579,#441,#442);
#372=AXIS2_PLACEMENT_3D('',#580,#443,#444);
#373=AXIS2_PLACEMENT_3D('',#581,#445,#446);
#374=AXIS2_PLACEMENT_3D('',#582,#447,#448);
#375=AXIS2_PLACEMENT_3D('',#584,#450,#451);
#376=AXIS2_PLACEMENT_3D('',#585,#452,#453);
#377=AXIS2_PLACEMENT_3D('',#587,#455,#456);
#378=AXIS2_PLACEMENT_3D('',#588,#457,#458);
#379=AXIS2_PLACEMENT_3D('',#590,#460,#461);
#380=AXIS2_PLACEMENT_3D('',#591,#462,#463);
#381=AXIS2_PLACEMENT_3D('',#593,#465,#466);
#382=AXIS2_PLACEMENT_3D('',#594,#467,#468);
#383=AXIS2_PLACEMENT_3D('',#595,#469,#470);
#384=AXIS2_PLACEMENT_3D('',#596,#471,#472);
#385=AXIS2_PLACEMENT_3D('',#598,#473,#474);
#386=AXIS2_PLACEMENT_3D('',#599,#475,#476);
#387=AXIS2_PLACEMENT_3D('',#601,#477,#478);
#388=AXIS2_PLACEMENT_3D('',#602,#479,#480);
#389=AXIS2_PLACEMENT_3D('',#605,#481,#482);
#390=AXIS2_PLACEMENT_3D('',#606,#483,#484);
#391=DIRECTION('',(0.,0.,1.));
#392=DIRECTION('',(1.,0.,0.));
#393=DIRECTION('',(0.,0.,1.));
#394=DIRECTION('',(1.,0.,0.));
#395=DIRECTION('',(0.,0.,1.));
#396=DIRECTION('',(1.,0.,0.));
#397=DIRECTION('',(0.,0.,1.));
#398=DIRECTION('',(1.,0.,0.));
#399=DIRECTION('',(0.,0.,-1.));
#400=DIRECTION('',(-1.,0.,0.));
#401=DIRECTION('',(0.,0.,1.));
#402=DIRECTION('',(-1.,0.,0.));
#403=DIRECTION('',(0.,0.,1.));
#404=DIRECTION('',(1.,0.,0.));
#405=DIRECTION('',(0.,0.,1.));
#406=DIRECTION('',(1.,0.,0.));
#407=DIRECTION('',(0.,0.,1.));
#408=DIRECTION('',(-1.,0.,0.));
#409=DIRECTION('',(0.,0.,1.));
#410=DIRECTION('',(-1.,0.,0.));
#411=DIRECTION('',(0.,0.,1.));
#412=DIRECTION('',(-1.,0.,0.));
#413=DIRECTION('',(0.,0.,1.));
#414=DIRECTION('',(-1.,0.,0.));
#415=DIRECTION('',(0.,0.,-1.));
#416=DIRECTION('',(-1.,0.,0.));
#417=DIRECTION('',(0.,0.,-1.));
#418=DIRECTION('',(1.,0.,0.));
#419=DIRECTION('',(0.,0.,1.));
#420=DIRECTION('',(0.707106781186547,0.,0.707106781186548));
#421=DIRECTION('',(-0.707106781186548,0.,0.707106781186547));
#422=DIRECTION('',(0.,0.,-1.));
#423=DIRECTION('',(0.,0.,1.));
#424=DIRECTION('',(-2.64204134232936E-15,-0.707106781186547,0.707106781186548));
#425=DIRECTION('',(2.64204134232937E-15,0.707106781186548,0.707106781186547));
#426=DIRECTION('',(0.,0.,-1.));
#427=DIRECTION('',(0.,0.,1.));
#428=DIRECTION('',(-0.707106781186547,1.65668806430732E-15,0.707106781186548));
#429=DIRECTION('',(0.707106781186548,-1.65668806430733E-15,0.707106781186547));
#430=DIRECTION('',(0.,0.,-1.));
#431=DIRECTION('',(0.,0.,1.));
#432=DIRECTION('',(8.28344032153661E-16,0.707106781186547,0.707106781186548));
#433=DIRECTION('',(-8.28344032153663E-16,-0.707106781186548,0.707106781186547));
#434=DIRECTION('',(0.,0.,-1.));
#435=DIRECTION('',(0.,0.,1.));
#436=DIRECTION('',(1.,0.,0.));
#437=DIRECTION('',(-3.47224914744734E-16,0.,1.));
#438=DIRECTION('',(-1.,0.,0.));
#439=DIRECTION('',(0.,0.,-1.));
#440=DIRECTION('',(-1.,0.,0.));
#441=DIRECTION('',(3.47224914744734E-16,0.,-1.));
#442=DIRECTION('',(-1.,0.,0.));
#443=DIRECTION('',(3.47224914744734E-16,0.,-1.));
#444=DIRECTION('',(-1.,0.,0.));
#445=DIRECTION('',(4.23182719854388E-16,0.,-1.));
#446=DIRECTION('',(-1.,0.,-4.23182719854388E-16));
#447=DIRECTION('',(0.,0.,-1.));
#448=DIRECTION('',(-1.,0.,-1.03751404065599E-16));
#449=DIRECTION('',(1.,-1.17145536458252E-15,0.));
#450=DIRECTION('',(1.17145536458252E-15,1.,0.));
#451=DIRECTION('',(0.,0.,-1.));
#452=DIRECTION('',(8.28344032153661E-16,0.707106781186547,0.707106781186548));
#453=DIRECTION('',(8.28330459778925E-16,0.707106781186548,-0.707106781186547));
#454=DIRECTION('',(-1.,3.7364106986726E-15,0.));
#455=DIRECTION('',(-3.7364106986726E-15,-1.,0.));
#456=DIRECTION('',(0.,0.,-1.));
#457=DIRECTION('',(-2.64204134232936E-15,-0.707106781186547,0.707106781186548));
#458=DIRECTION('',(-2.64198385391268E-15,-0.707106781186548,-0.707106781186547));
#459=DIRECTION('',(2.34291072916505E-15,1.,0.));
#460=DIRECTION('',(-0.707106781186547,1.65668806430732E-15,0.707106781186548));
#461=DIRECTION('',(-0.707106781186548,1.65666091955785E-15,-0.707106781186547));
#462=DIRECTION('',(-1.,2.34291072916505E-15,0.));
#463=DIRECTION('',(0.,0.,-1.));
#464=DIRECTION('',(0.,-1.,0.));
#465=DIRECTION('',(1.,0.,0.));
#466=DIRECTION('',(0.,0.,-1.));
#467=DIRECTION('',(0.707106781186547,0.,0.707106781186548));
#468=DIRECTION('',(0.707106781186548,0.,-0.707106781186547));
#469=DIRECTION('',(0.,0.,-1.));
#470=DIRECTION('',(-1.,0.,0.));
#471=DIRECTION('',(0.,0.,-1.));
#472=DIRECTION('',(1.,0.,0.));
#473=DIRECTION('',(0.,0.,1.));
#474=DIRECTION('',(1.,0.,0.));
#475=DIRECTION('',(0.,0.,1.));
#476=DIRECTION('',(1.,0.,0.));
#477=DIRECTION('',(0.,0.,1.));
#478=DIRECTION('',(1.,0.,0.));
#479=DIRECTION('',(0.,0.,1.));
#480=DIRECTION('',(-1.,0.,0.));
#481=DIRECTION('',(-4.95749978104122E-16,0.,1.));
#482=DIRECTION('',(1.,0.,4.77767225939096E-16));
#483=DIRECTION('',(0.,0.,1.));
#484=DIRECTION('',(1.,0.,-3.20134790031431E-16));
#485=CARTESIAN_POINT('',(0.,0.,0.));
#486=CARTESIAN_POINT('',(0.,0.,-21.));
#487=CARTESIAN_POINT('CRP',(-2.0475076550228,0.,-53.));
#488=CARTESIAN_POINT('CIP_DCSYS',(0.,0.,-53.));
#489=CARTESIAN_POINT('',(-2.0475076550228,0.,-35.5));
#490=CARTESIAN_POINT('',(-1.36500510334854,0.,-35.5));
#491=CARTESIAN_POINT('',(-0.682502551674268,0.,-35.5));
#492=CARTESIAN_POINT('',(0.,0.,-35.5));
#493=CARTESIAN_POINT('',(0.,0.,-41.78));
#494=CARTESIAN_POINT('',(0.,0.,-48.06));
#495=CARTESIAN_POINT('',(1.22124532708767E-15,0.,-54.34));
#496=CARTESIAN_POINT('',(-0.532988432623096,0.,-53.8070115673769));
#497=CARTESIAN_POINT('',(-1.06597686524619,0.,-53.2740231347538));
#498=CARTESIAN_POINT('',(-1.5989652978693,0.,-52.7410347021307));
#499=CARTESIAN_POINT('',(-1.74847941692047,0.,-51.7473564680871));
#500=CARTESIAN_POINT('',(-1.89799353597164,0.,-50.7536782340436));
#501=CARTESIAN_POINT('',(-2.0475076550228,0.,-49.76));
#502=CARTESIAN_POINT('',(-2.0475076550228,0.,-45.0066666666667));
#503=CARTESIAN_POINT('',(-2.0475076550228,0.,-40.2533333333333));
#504=CARTESIAN_POINT('',(-2.0475076550228,0.,-35.5));
#505=CARTESIAN_POINT('',(0.,0.,0.));
#506=CARTESIAN_POINT('',(0.,0.,-21.));
#507=CARTESIAN_POINT('',(0.,0.,-53.));
#508=CARTESIAN_POINT('',(0.,0.,-35.3614359353945));
#509=CARTESIAN_POINT('',(-2.0475076550228,0.,-35.3614359353945));
#510=CARTESIAN_POINT('',(0.,0.,-35.5));
#511=CARTESIAN_POINT('',(-2.0475076550228,0.,-35.5));
#512=CARTESIAN_POINT('',(0.,0.,20.9080749503476));
#513=CARTESIAN_POINT('',(0.,0.,0.));
#514=CARTESIAN_POINT('',(0.919999999999999,0.,0.));
#515=CARTESIAN_POINT('',(0.,0.,-1.));
#516=CARTESIAN_POINT('',(1.09807786609147,-1.575,-1.));
#517=CARTESIAN_POINT('',(1.575,-1.09807786609147,-1.));
#518=CARTESIAN_POINT('',(1.575,-1.09807786609147,-1.));
#519=CARTESIAN_POINT('',(1.575,-0.760414446288925,-0.806885037773995));
#520=CARTESIAN_POINT('',(1.575,-0.386979304071414,-0.655092807679912));
#521=CARTESIAN_POINT('',(1.575,0.386223483247579,-0.654907282997092));
#522=CARTESIAN_POINT('',(1.575,0.762215684889874,-0.807915194148591));
#523=CARTESIAN_POINT('',(1.575,1.09807786609148,-0.999999999999991));
#524=CARTESIAN_POINT('',(1.575,1.09807786609147,-1.));
#525=CARTESIAN_POINT('',(0.,0.,-1.));
#526=CARTESIAN_POINT('',(1.09807786609147,1.575,-1.));
#527=CARTESIAN_POINT('',(1.09807786609147,1.575,-1.));
#528=CARTESIAN_POINT('',(0.760414446288927,1.575,-0.806885037773996));
#529=CARTESIAN_POINT('',(0.386979304071417,1.575,-0.655092807679912));
#530=CARTESIAN_POINT('',(-0.386223483247577,1.575,-0.654907282997092));
#531=CARTESIAN_POINT('',(-0.762215684889872,1.575,-0.807915194148591));
#532=CARTESIAN_POINT('',(-1.09807786609148,1.575,-0.999999999999991));
#533=CARTESIAN_POINT('',(-1.09807786609147,1.575,-1.));
#534=CARTESIAN_POINT('',(0.,0.,-1.));
#535=CARTESIAN_POINT('',(-1.575,1.09807786609148,-1.));
#536=CARTESIAN_POINT('',(-1.575,1.09807786609148,-0.999999999999991));
#537=CARTESIAN_POINT('',(-1.575,0.762215684889878,-0.807915194148591));
#538=CARTESIAN_POINT('',(-1.575,0.386223483247583,-0.654907282997092));
#539=CARTESIAN_POINT('',(-1.575,-0.386979304071411,-0.655092807679912));
#540=CARTESIAN_POINT('',(-1.575,-0.760414446288921,-0.806885037773996));
#541=CARTESIAN_POINT('',(-1.575,-1.09807786609147,-1.));
#542=CARTESIAN_POINT('',(-1.575,-1.09807786609147,-1.));
#543=CARTESIAN_POINT('',(0.,0.,-1.));
#544=CARTESIAN_POINT('',(-1.09807786609148,-1.575,-1.));
#545=CARTESIAN_POINT('',(-1.09807786609149,-1.575,-0.999999999999991));
#546=CARTESIAN_POINT('',(-0.76221568488988,-1.575,-0.807915194148591));
#547=CARTESIAN_POINT('',(-0.386223483247585,-1.575,-0.654907282997092));
#548=CARTESIAN_POINT('',(0.386979304071409,-1.575,-0.655092807679912));
#549=CARTESIAN_POINT('',(0.760414446288919,-1.575,-0.806885037773995));
#550=CARTESIAN_POINT('',(1.09807786609147,-1.575,-1.));
#551=CARTESIAN_POINT('',(0.,0.,0.));
#552=CARTESIAN_POINT('',(0.,0.,-6.6));
#553=CARTESIAN_POINT('',(1.92,0.,-6.6));
#554=CARTESIAN_POINT('',(1.575,1.09807786609147,20.9080749503476));
#555=CARTESIAN_POINT('',(1.575,1.09807786609147,-6.));
#556=CARTESIAN_POINT('',(0.,0.,-4.425));
#557=CARTESIAN_POINT('',(1.575,-1.09807786609147,-6.));
#558=CARTESIAN_POINT('',(1.575,-1.09807786609147,20.9080749503476));
#559=CARTESIAN_POINT('',(1.09807786609147,-1.575,20.9080749503476));
#560=CARTESIAN_POINT('',(1.09807786609147,-1.575,-6.));
#561=CARTESIAN_POINT('',(0.,0.,-4.425));
#562=CARTESIAN_POINT('',(-1.09807786609148,-1.575,-6.));
#563=CARTESIAN_POINT('',(-1.09807786609148,-1.575,20.9080749503476));
#564=CARTESIAN_POINT('',(-1.575,-1.09807786609147,20.9080749503476));
#565=CARTESIAN_POINT('',(-1.575,-1.09807786609147,-6.));
#566=CARTESIAN_POINT('',(0.,0.,-4.425));
#567=CARTESIAN_POINT('',(-1.575,1.09807786609148,-6.));
#568=CARTESIAN_POINT('',(-1.575,1.09807786609148,20.9080749503476));
#569=CARTESIAN_POINT('',(-1.09807786609147,1.575,20.9080749503476));
#570=CARTESIAN_POINT('',(-1.09807786609147,1.575,-6.));
#571=CARTESIAN_POINT('',(0.,0.,-4.425));
#572=CARTESIAN_POINT('',(1.09807786609147,1.575,-6.));
#573=CARTESIAN_POINT('',(1.09807786609147,1.575,20.9080749503476));
#574=CARTESIAN_POINT('',(0.,0.,20.9080749503476));
#575=CARTESIAN_POINT('',(3.35482329081923E-15,0.,-35.148713868516));
#576=CARTESIAN_POINT('',(-1.99999999999999,0.,-35.148713868516));
#577=CARTESIAN_POINT('',(0.,0.,-6.68));
#578=CARTESIAN_POINT('',(-2.,0.,-6.68));
#579=CARTESIAN_POINT('',(3.33066907387547E-15,0.,-35.0791502631466));
#580=CARTESIAN_POINT('',(3.35482329081923E-15,0.,-35.148713868516));
#581=CARTESIAN_POINT('',(2.2,0.,4.65500991839828E-16));
#582=CARTESIAN_POINT('',(0.,0.,-7.88000000000001));
#583=CARTESIAN_POINT('',(4.725,1.57499999999999,-6.));
#584=CARTESIAN_POINT('',(4.725,1.57499999999999,10.));
#585=CARTESIAN_POINT('',(4.725,1.57499999999999,-6.));
#586=CARTESIAN_POINT('',(-4.72500000000001,-1.57499999999998,-6.));
#587=CARTESIAN_POINT('',(-4.72500000000001,-1.57499999999998,10.));
#588=CARTESIAN_POINT('',(-4.72500000000001,-1.57499999999998,-6.));
#589=CARTESIAN_POINT('',(-1.57499999999999,4.725,-6.));
#590=CARTESIAN_POINT('',(-1.57499999999999,4.725,-6.));
#591=CARTESIAN_POINT('',(-1.57499999999999,4.725,10.));
#592=CARTESIAN_POINT('',(1.575,-4.725,-6.));
#593=CARTESIAN_POINT('',(1.575,-4.725,10.));
#594=CARTESIAN_POINT('',(1.575,-4.725,-6.));
#595=CARTESIAN_POINT('',(0.,0.,-35.5));
#596=CARTESIAN_POINT('',(0.,0.,-35.5));
#597=CARTESIAN_POINT('',(2.0475076550228,0.,-35.5));
#598=CARTESIAN_POINT('',(0.,0.,-35.5));
#599=CARTESIAN_POINT('',(0.,0.,-49.76));
#600=CARTESIAN_POINT('',(2.0475076550228,0.,-49.76));
#601=CARTESIAN_POINT('',(0.,0.,20.9080749503476));
#602=CARTESIAN_POINT('',(1.53610579968881E-14,0.,-52.7410347021307));
#603=CARTESIAN_POINT('',(-1.59896529786929,0.,-52.7410347021307));
#604=CARTESIAN_POINT('',(1.59872115546023E-14,0.,-54.34));
#605=CARTESIAN_POINT('',(1.50990331349021E-14,0.,-52.2124923449772));
#606=CARTESIAN_POINT('',(0.,0.,-55.));
#607=MECHANICAL_DESIGN_GEOMETRIC_PRESENTATION_REPRESENTATION('',(#322,#323,
#324,#325,#326,#327,#328,#329,#330),#608);
#608=(
GEOMETRIC_REPRESENTATION_CONTEXT(3)
GLOBAL_UNCERTAINTY_ASSIGNED_CONTEXT((#609))
GLOBAL_UNIT_ASSIGNED_CONTEXT((#615,#611,#610))
REPRESENTATION_CONTEXT('TOOL','TOP_LEVEL_ASSEMBLY_PART')
);
#609=UNCERTAINTY_MEASURE_WITH_UNIT(LENGTH_MEASURE(0.0508),#615,
'DISTANCE_ACCURACY_VALUE','Maximum Tolerance applied to model');
#610=(
NAMED_UNIT(*)
SI_UNIT($,.STERADIAN.)
SOLID_ANGLE_UNIT()
);
#611=(
CONVERSION_BASED_UNIT('DEGREE',#613)
NAMED_UNIT(#612)
PLANE_ANGLE_UNIT()
);
#612=DIMENSIONAL_EXPONENTS(0.,0.,0.,0.,0.,0.,0.);
#613=PLANE_ANGLE_MEASURE_WITH_UNIT(PLANE_ANGLE_MEASURE(0.0174532925),#614);
#614=(
NAMED_UNIT(*)
PLANE_ANGLE_UNIT()
SI_UNIT($,.RADIAN.)
);
#615=(
LENGTH_UNIT()
NAMED_UNIT(*)
SI_UNIT(.MILLI.,.METRE.)
);
ENDSEC;
END-ISO-10303-21;
