ISO-10303-21;
HEADER;
/* Generated by software containing ST-Developer
 * from STEP Tools, Inc. (www.steptools.com) 
 */
/* OPTION: using custom schema-name function */

FILE_DESCRIPTION(
/* description */ (''),
/* implementation_level */ '2;1');

FILE_NAME(
/* name */ 'TOOL.STP',
/* time_stamp */ '2022-12-04T05:48:05+01:00',
/* author */ (''),
/* organization */ ('SMS'),
/* preprocessor_version */ 'ST-DEVELOPER v16.7',
/* originating_system */ 'SIEMENS PLM Software NX 12.0',
/* authorisation */ '');

FILE_SCHEMA (('AUTOMOTIVE_DESIGN { 1 0 10303 214 3 1 1 1 }'));
ENDSEC;

DATA;
#10=CONSTRUCTIVE_GEOMETRY_REPRESENTATION_RELATIONSHIP(
'supplemental geometry','',#26,#11);
#11=CONSTRUCTIVE_GEOMETRY_REPRESENTATION('supplemental geometry',(#351,
#352,#353),#608);
#12=GEOMETRICALLY_BOUNDED_WIREFRAME_SHAPE_REPRESENTATION('Tool-None',(#27),
#608);
#13=SHAPE_REPRESENTATION_RELATIONSHIP('None',
'relationship between Tool-None and Tool-None',#26,#15);
#14=SHAPE_REPRESENTATION_RELATIONSHIP('None',
'relationship between Tool-None and Tool-None',#26,#12);
#15=ADVANCED_BREP_SHAPE_REPRESENTATION('Tool-None',(#39,#40),#608);
#16=SHAPE_DEFINITION_REPRESENTATION(#17,#26);
#17=PRODUCT_DEFINITION_SHAPE('','',#18);
#18=PRODUCT_DEFINITION(' ','',#20,#19);
#19=PRODUCT_DEFINITION_CONTEXT('part definition',#25,'design');
#20=PRODUCT_DEFINITION_FORMATION_WITH_SPECIFIED_SOURCE(' ',' ',#22,
 .NOT_KNOWN.);
#21=PRODUCT_RELATED_PRODUCT_CATEGORY('part','',(#22));
#22=PRODUCT('Tool','Tool',' ',(#23));
#23=PRODUCT_CONTEXT(' ',#25,'mechanical');
#24=APPLICATION_PROTOCOL_DEFINITION('international standard',
'automotive_design',2010,#25);
#25=APPLICATION_CONTEXT(
'core data for automotive mechanical design processes');
#26=SHAPE_REPRESENTATION('Tool-None',(#350),#608);
#27=GEOMETRIC_CURVE_SET('None',(#486,#487,#488,#314));
#28=VERTEX_LOOP('',#259);
#29=SURFACE_STYLE_USAGE(.BOTH.,#31);
#30=SURFACE_STYLE_USAGE(.BOTH.,#32);
#31=SURFACE_SIDE_STYLE('',(#33));
#32=SURFACE_SIDE_STYLE('',(#34));
#33=SURFACE_STYLE_FILL_AREA(#35);
#34=SURFACE_STYLE_FILL_AREA(#36);
#35=FILL_AREA_STYLE('',(#37));
#36=FILL_AREA_STYLE('',(#38));
#37=FILL_AREA_STYLE_COLOUR('',#348);
#38=FILL_AREA_STYLE_COLOUR('',#349);
#39=MANIFOLD_SOLID_BREP('NOCUT',#41);
#40=MANIFOLD_SOLID_BREP('CUT',#42);
#41=CLOSED_SHELL('',(#98,#99,#100,#101,#102,#103,#104,#105,#106,#107,#108,
#109,#110,#111,#112,#113));
#42=CLOSED_SHELL('',(#114,#115,#116,#117));
#43=PLANE('',#372);
#44=PLANE('',#374);
#45=PLANE('',#375);
#46=PLANE('',#376);
#47=PLANE('',#377);
#48=PLANE('',#378);
#49=PLANE('',#379);
#50=PLANE('',#380);
#51=PLANE('',#381);
#52=PLANE('',#382);
#53=PLANE('',#383);
#54=PLANE('',#385);
#55=FACE_OUTER_BOUND('',#148,.T.);
#56=FACE_OUTER_BOUND('',#151,.T.);
#57=FACE_OUTER_BOUND('',#152,.T.);
#58=FACE_OUTER_BOUND('',#153,.T.);
#59=FACE_OUTER_BOUND('',#154,.T.);
#60=FACE_OUTER_BOUND('',#155,.T.);
#61=FACE_OUTER_BOUND('',#156,.T.);
#62=FACE_OUTER_BOUND('',#157,.T.);
#63=FACE_OUTER_BOUND('',#158,.T.);
#64=FACE_OUTER_BOUND('',#161,.T.);
#65=FACE_OUTER_BOUND('',#162,.T.);
#66=ELLIPSE('',#367,2.13829090630812,1.512);
#67=ELLIPSE('',#368,2.13829090630812,1.512);
#68=ELLIPSE('',#369,2.13829090630812,1.512);
#69=ELLIPSE('',#370,2.13829090630812,1.512);
#70=LINE('',#559,#82);
#71=LINE('',#563,#83);
#72=LINE('',#564,#84);
#73=LINE('',#568,#85);
#74=LINE('',#569,#86);
#75=LINE('',#573,#87);
#76=LINE('',#574,#88);
#77=LINE('',#578,#89);
#78=LINE('',#582,#90);
#79=LINE('',#585,#91);
#80=LINE('',#588,#92);
#81=LINE('',#591,#93);
#82=VECTOR('',#425,1.);
#83=VECTOR('',#428,1.);
#84=VECTOR('',#429,1.);
#85=VECTOR('',#432,1.);
#86=VECTOR('',#433,1.);
#87=VECTOR('',#436,1.);
#88=VECTOR('',#437,1.);
#89=VECTOR('',#440,1.);
#90=VECTOR('',#447,1.);
#91=VECTOR('',#452,1.);
#92=VECTOR('',#457,1.);
#93=VECTOR('',#462,1.);
#94=CONICAL_SURFACE('',#365,0.511999999999999,45.);
#95=CONICAL_SURFACE('',#373,2.775,45.0000000000001);
#96=CONICAL_SURFACE('',#389,1.6203476742858,45.0000000000001);
#97=CONICAL_SURFACE('',#390,0.87733967594302,8.74526718203206);
#98=ADVANCED_FACE('',(#122,#123),#118,.T.);
#99=ADVANCED_FACE('',(#124,#125),#119,.T.);
#100=ADVANCED_FACE('',(#126,#127),#94,.T.);
#101=ADVANCED_FACE('',(#128,#129),#120,.T.);
#102=ADVANCED_FACE('',(#55),#43,.F.);
#103=ADVANCED_FACE('',(#130,#131),#95,.T.);
#104=ADVANCED_FACE('',(#56),#44,.T.);
#105=ADVANCED_FACE('',(#57),#45,.T.);
#106=ADVANCED_FACE('',(#58),#46,.T.);
#107=ADVANCED_FACE('',(#59),#47,.T.);
#108=ADVANCED_FACE('',(#60),#48,.T.);
#109=ADVANCED_FACE('',(#61),#49,.T.);
#110=ADVANCED_FACE('',(#62),#50,.T.);
#111=ADVANCED_FACE('',(#63),#51,.T.);
#112=ADVANCED_FACE('',(#132,#133),#52,.T.);
#113=ADVANCED_FACE('',(#64),#53,.T.);
#114=ADVANCED_FACE('',(#65),#54,.T.);
#115=ADVANCED_FACE('',(#134,#135),#121,.T.);
#116=ADVANCED_FACE('',(#136,#137),#96,.T.);
#117=ADVANCED_FACE('',(#138,#139),#97,.T.);
#118=CYLINDRICAL_SURFACE('',#356,1.54034767428581);
#119=CYLINDRICAL_SURFACE('',#359,1.575);
#120=CYLINDRICAL_SURFACE('',#371,1.512);
#121=CYLINDRICAL_SURFACE('',#387,1.54034767428581);
#122=FACE_BOUND('',#140,.T.);
#123=FACE_BOUND('',#141,.T.);
#124=FACE_BOUND('',#142,.T.);
#125=FACE_BOUND('',#143,.T.);
#126=FACE_BOUND('',#144,.T.);
#127=FACE_BOUND('',#145,.T.);
#128=FACE_BOUND('',#146,.T.);
#129=FACE_BOUND('',#147,.T.);
#130=FACE_BOUND('',#149,.T.);
#131=FACE_BOUND('',#150,.T.);
#132=FACE_BOUND('',#159,.T.);
#133=FACE_BOUND('',#160,.T.);
#134=FACE_BOUND('',#163,.T.);
#135=FACE_BOUND('',#164,.T.);
#136=FACE_BOUND('',#165,.T.);
#137=FACE_BOUND('',#28,.T.);
#138=FACE_BOUND('',#166,.T.);
#139=FACE_BOUND('',#167,.T.);
#140=EDGE_LOOP('',(#168));
#141=EDGE_LOOP('',(#169));
#142=EDGE_LOOP('',(#170));
#143=EDGE_LOOP('',(#171));
#144=EDGE_LOOP('',(#172));
#145=EDGE_LOOP('',(#173,#174,#175,#176,#177,#178,#179,#180));
#146=EDGE_LOOP('',(#181));
#147=EDGE_LOOP('',(#182,#183,#184,#185,#186,#187,#188,#189,#190,#191,#192,
#193,#194,#195,#196,#197));
#148=EDGE_LOOP('',(#198));
#149=EDGE_LOOP('',(#199));
#150=EDGE_LOOP('',(#200));
#151=EDGE_LOOP('',(#201,#202));
#152=EDGE_LOOP('',(#203,#204,#205,#206));
#153=EDGE_LOOP('',(#207,#208));
#154=EDGE_LOOP('',(#209,#210,#211,#212));
#155=EDGE_LOOP('',(#213,#214));
#156=EDGE_LOOP('',(#215,#216,#217,#218));
#157=EDGE_LOOP('',(#219,#220,#221,#222));
#158=EDGE_LOOP('',(#223,#224));
#159=EDGE_LOOP('',(#225));
#160=EDGE_LOOP('',(#226));
#161=EDGE_LOOP('',(#227));
#162=EDGE_LOOP('',(#228));
#163=EDGE_LOOP('',(#229));
#164=EDGE_LOOP('',(#230));
#165=EDGE_LOOP('',(#231));
#166=EDGE_LOOP('',(#232));
#167=EDGE_LOOP('',(#233));
#168=ORIENTED_EDGE('',*,*,#260,.T.);
#169=ORIENTED_EDGE('',*,*,#261,.T.);
#170=ORIENTED_EDGE('',*,*,#262,.T.);
#171=ORIENTED_EDGE('',*,*,#263,.F.);
#172=ORIENTED_EDGE('',*,*,#264,.F.);
#173=ORIENTED_EDGE('',*,*,#265,.T.);
#174=ORIENTED_EDGE('',*,*,#266,.T.);
#175=ORIENTED_EDGE('',*,*,#267,.T.);
#176=ORIENTED_EDGE('',*,*,#268,.T.);
#177=ORIENTED_EDGE('',*,*,#269,.T.);
#178=ORIENTED_EDGE('',*,*,#270,.T.);
#179=ORIENTED_EDGE('',*,*,#271,.T.);
#180=ORIENTED_EDGE('',*,*,#272,.T.);
#181=ORIENTED_EDGE('',*,*,#273,.F.);
#182=ORIENTED_EDGE('',*,*,#274,.F.);
#183=ORIENTED_EDGE('',*,*,#275,.F.);
#184=ORIENTED_EDGE('',*,*,#276,.F.);
#185=ORIENTED_EDGE('',*,*,#265,.F.);
#186=ORIENTED_EDGE('',*,*,#277,.F.);
#187=ORIENTED_EDGE('',*,*,#278,.F.);
#188=ORIENTED_EDGE('',*,*,#279,.F.);
#189=ORIENTED_EDGE('',*,*,#271,.F.);
#190=ORIENTED_EDGE('',*,*,#280,.F.);
#191=ORIENTED_EDGE('',*,*,#281,.F.);
#192=ORIENTED_EDGE('',*,*,#282,.F.);
#193=ORIENTED_EDGE('',*,*,#269,.F.);
#194=ORIENTED_EDGE('',*,*,#283,.F.);
#195=ORIENTED_EDGE('',*,*,#284,.F.);
#196=ORIENTED_EDGE('',*,*,#285,.F.);
#197=ORIENTED_EDGE('',*,*,#267,.F.);
#198=ORIENTED_EDGE('',*,*,#264,.T.);
#199=ORIENTED_EDGE('',*,*,#273,.T.);
#200=ORIENTED_EDGE('',*,*,#262,.F.);
#201=ORIENTED_EDGE('',*,*,#281,.T.);
#202=ORIENTED_EDGE('',*,*,#286,.T.);
#203=ORIENTED_EDGE('',*,*,#280,.T.);
#204=ORIENTED_EDGE('',*,*,#270,.F.);
#205=ORIENTED_EDGE('',*,*,#282,.T.);
#206=ORIENTED_EDGE('',*,*,#286,.F.);
#207=ORIENTED_EDGE('',*,*,#278,.T.);
#208=ORIENTED_EDGE('',*,*,#287,.T.);
#209=ORIENTED_EDGE('',*,*,#277,.T.);
#210=ORIENTED_EDGE('',*,*,#272,.F.);
#211=ORIENTED_EDGE('',*,*,#279,.T.);
#212=ORIENTED_EDGE('',*,*,#287,.F.);
#213=ORIENTED_EDGE('',*,*,#284,.T.);
#214=ORIENTED_EDGE('',*,*,#288,.T.);
#215=ORIENTED_EDGE('',*,*,#283,.T.);
#216=ORIENTED_EDGE('',*,*,#268,.F.);
#217=ORIENTED_EDGE('',*,*,#285,.T.);
#218=ORIENTED_EDGE('',*,*,#288,.F.);
#219=ORIENTED_EDGE('',*,*,#274,.T.);
#220=ORIENTED_EDGE('',*,*,#266,.F.);
#221=ORIENTED_EDGE('',*,*,#276,.T.);
#222=ORIENTED_EDGE('',*,*,#289,.F.);
#223=ORIENTED_EDGE('',*,*,#275,.T.);
#224=ORIENTED_EDGE('',*,*,#289,.T.);
#225=ORIENTED_EDGE('',*,*,#260,.F.);
#226=ORIENTED_EDGE('',*,*,#263,.T.);
#227=ORIENTED_EDGE('',*,*,#261,.F.);
#228=ORIENTED_EDGE('',*,*,#290,.F.);
#229=ORIENTED_EDGE('',*,*,#291,.T.);
#230=ORIENTED_EDGE('',*,*,#290,.T.);
#231=ORIENTED_EDGE('',*,*,#292,.F.);
#232=ORIENTED_EDGE('',*,*,#292,.T.);
#233=ORIENTED_EDGE('',*,*,#291,.F.);
#234=VERTEX_POINT('',#509);
#235=VERTEX_POINT('',#511);
#236=VERTEX_POINT('',#514);
#237=VERTEX_POINT('',#516);
#238=VERTEX_POINT('',#519);
#239=VERTEX_POINT('',#521);
#240=VERTEX_POINT('',#522);
#241=VERTEX_POINT('',#529);
#242=VERTEX_POINT('',#531);
#243=VERTEX_POINT('',#538);
#244=VERTEX_POINT('',#540);
#245=VERTEX_POINT('',#547);
#246=VERTEX_POINT('',#549);
#247=VERTEX_POINT('',#558);
#248=VERTEX_POINT('',#560);
#249=VERTEX_POINT('',#562);
#250=VERTEX_POINT('',#565);
#251=VERTEX_POINT('',#567);
#252=VERTEX_POINT('',#570);
#253=VERTEX_POINT('',#572);
#254=VERTEX_POINT('',#575);
#255=VERTEX_POINT('',#577);
#256=VERTEX_POINT('',#597);
#257=VERTEX_POINT('',#600);
#258=VERTEX_POINT('',#603);
#259=VERTEX_POINT('',#604);
#260=EDGE_CURVE('',#234,#234,#293,.T.);
#261=EDGE_CURVE('',#235,#235,#294,.T.);
#262=EDGE_CURVE('',#236,#236,#295,.T.);
#263=EDGE_CURVE('',#237,#237,#296,.T.);
#264=EDGE_CURVE('',#238,#238,#297,.T.);
#265=EDGE_CURVE('',#239,#240,#298,.T.);
#266=EDGE_CURVE('',#240,#241,#315,.T.);
#267=EDGE_CURVE('',#241,#242,#299,.T.);
#268=EDGE_CURVE('',#242,#243,#316,.T.);
#269=EDGE_CURVE('',#243,#244,#300,.T.);
#270=EDGE_CURVE('',#244,#245,#317,.T.);
#271=EDGE_CURVE('',#245,#246,#301,.T.);
#272=EDGE_CURVE('',#246,#239,#318,.T.);
#273=EDGE_CURVE('',#247,#247,#302,.T.);
#274=EDGE_CURVE('',#248,#241,#70,.T.);
#275=EDGE_CURVE('',#249,#248,#66,.T.);
#276=EDGE_CURVE('',#240,#249,#71,.T.);
#277=EDGE_CURVE('',#250,#239,#72,.T.);
#278=EDGE_CURVE('',#251,#250,#67,.T.);
#279=EDGE_CURVE('',#246,#251,#73,.T.);
#280=EDGE_CURVE('',#252,#245,#74,.T.);
#281=EDGE_CURVE('',#253,#252,#68,.T.);
#282=EDGE_CURVE('',#244,#253,#75,.T.);
#283=EDGE_CURVE('',#254,#243,#76,.T.);
#284=EDGE_CURVE('',#255,#254,#69,.T.);
#285=EDGE_CURVE('',#242,#255,#77,.T.);
#286=EDGE_CURVE('',#252,#253,#78,.T.);
#287=EDGE_CURVE('',#250,#251,#79,.T.);
#288=EDGE_CURVE('',#254,#255,#80,.T.);
#289=EDGE_CURVE('',#248,#249,#81,.T.);
#290=EDGE_CURVE('',#256,#256,#303,.T.);
#291=EDGE_CURVE('',#257,#257,#304,.T.);
#292=EDGE_CURVE('',#258,#258,#305,.T.);
#293=CIRCLE('',#354,1.54034767428581);
#294=CIRCLE('',#355,1.54034767428581);
#295=CIRCLE('',#357,1.575);
#296=CIRCLE('',#358,1.575);
#297=CIRCLE('',#360,0.511999999999999);
#298=CIRCLE('',#361,1.512);
#299=CIRCLE('',#362,1.512);
#300=CIRCLE('',#363,1.512);
#301=CIRCLE('',#364,1.512);
#302=CIRCLE('',#366,1.512);
#303=CIRCLE('',#384,1.54034767428581);
#304=CIRCLE('',#386,1.54034767428581);
#305=CIRCLE('',#388,1.22499508624344);
#306=CURVE_STYLE('',#310,POSITIVE_LENGTH_MEASURE(0.18),#320);
#307=CURVE_STYLE('',#311,POSITIVE_LENGTH_MEASURE(0.13),#347);
#308=CURVE_STYLE('',#312,POSITIVE_LENGTH_MEASURE(0.18),#346);
#309=CURVE_STYLE('',#313,POSITIVE_LENGTH_MEASURE(0.18),#346);
#310=DRAUGHTING_PRE_DEFINED_CURVE_FONT('continuous');
#311=DRAUGHTING_PRE_DEFINED_CURVE_FONT('continuous');
#312=DRAUGHTING_PRE_DEFINED_CURVE_FONT('continuous');
#313=DRAUGHTING_PRE_DEFINED_CURVE_FONT('continuous');
#314=B_SPLINE_CURVE_WITH_KNOTS('CUTTING PART LINE',3,(#489,#490,#491,#492,
#493,#494,#495,#496,#497,#498,#499,#500,#501,#502,#503,#504),
 .UNSPECIFIED.,.T.,.F.,(4,3,3,3,3,4),(0.,0.0405334695812586,0.513273353712579,
0.558860705814481,0.613440083613666,1.),.UNSPECIFIED.);
#315=B_SPLINE_CURVE_WITH_KNOTS('',3,(#523,#524,#525,#526,#527,#528),
 .UNSPECIFIED.,.F.,.F.,(4,2,4),(0.,0.5,1.),.UNSPECIFIED.);
#316=B_SPLINE_CURVE_WITH_KNOTS('',3,(#532,#533,#534,#535,#536,#537),
 .UNSPECIFIED.,.F.,.F.,(4,2,4),(0.,0.5,1.),.UNSPECIFIED.);
#317=B_SPLINE_CURVE_WITH_KNOTS('',3,(#541,#542,#543,#544,#545,#546),
 .UNSPECIFIED.,.F.,.F.,(4,2,4),(0.,0.5,1.),.UNSPECIFIED.);
#318=B_SPLINE_CURVE_WITH_KNOTS('',3,(#550,#551,#552,#553,#554,#555),
 .UNSPECIFIED.,.F.,.F.,(4,2,4),(0.,0.5,1.),.UNSPECIFIED.);
#319=DRAUGHTING_PRE_DEFINED_COLOUR('white');
#320=DRAUGHTING_PRE_DEFINED_COLOUR('blue');
#321=PRESENTATION_LAYER_ASSIGNMENT('1','Layer 1',(#486,#487,#488,#314,#351,
#352,#353,#39,#40));
#322=STYLED_ITEM('',(#331),#486);
#323=STYLED_ITEM('',(#332),#487);
#324=STYLED_ITEM('',(#333),#488);
#325=STYLED_ITEM('',(#334),#314);
#326=STYLED_ITEM('',(#335),#351);
#327=STYLED_ITEM('',(#336),#352);
#328=STYLED_ITEM('',(#337),#353);
#329=STYLED_ITEM('',(#338),#39);
#330=STYLED_ITEM('',(#339),#40);
#331=PRESENTATION_STYLE_ASSIGNMENT((#340));
#332=PRESENTATION_STYLE_ASSIGNMENT((#341));
#333=PRESENTATION_STYLE_ASSIGNMENT((#342));
#334=PRESENTATION_STYLE_ASSIGNMENT((#306));
#335=PRESENTATION_STYLE_ASSIGNMENT((#307));
#336=PRESENTATION_STYLE_ASSIGNMENT((#308));
#337=PRESENTATION_STYLE_ASSIGNMENT((#309));
#338=PRESENTATION_STYLE_ASSIGNMENT((#29));
#339=PRESENTATION_STYLE_ASSIGNMENT((#30));
#340=POINT_STYLE('',#343,POSITIVE_LENGTH_MEASURE(3.),#346);
#341=POINT_STYLE('',#344,POSITIVE_LENGTH_MEASURE(3.),#319);
#342=POINT_STYLE('',#345,POSITIVE_LENGTH_MEASURE(3.),#346);
#343=PRE_DEFINED_POINT_MARKER_SYMBOL('plus');
#344=PRE_DEFINED_POINT_MARKER_SYMBOL('plus');
#345=PRE_DEFINED_POINT_MARKER_SYMBOL('plus');
#346=COLOUR_RGB('Medium Maroon',0.6,0.4,0.4);
#347=COLOUR_RGB('Silver Gray',0.6,0.6,0.6);
#348=COLOUR_RGB('TLS_NOCUT',0.498023956664378,0.498023956664378,0.498023956664378);
#349=COLOUR_RGB('TLS_CUT',0.8,0.8,0.8);
#350=AXIS2_PLACEMENT_3D('',#485,#391,#392);
#351=AXIS2_PLACEMENT_3D('PCS',#505,#393,#394);
#352=AXIS2_PLACEMENT_3D('MCS',#506,#395,#396);
#353=AXIS2_PLACEMENT_3D('CIP',#507,#397,#398);
#354=AXIS2_PLACEMENT_3D('',#508,#399,#400);
#355=AXIS2_PLACEMENT_3D('',#510,#401,#402);
#356=AXIS2_PLACEMENT_3D('',#512,#403,#404);
#357=AXIS2_PLACEMENT_3D('',#513,#405,#406);
#358=AXIS2_PLACEMENT_3D('',#515,#407,#408);
#359=AXIS2_PLACEMENT_3D('',#517,#409,#410);
#360=AXIS2_PLACEMENT_3D('',#518,#411,#412);
#361=AXIS2_PLACEMENT_3D('',#520,#413,#414);
#362=AXIS2_PLACEMENT_3D('',#530,#415,#416);
#363=AXIS2_PLACEMENT_3D('',#539,#417,#418);
#364=AXIS2_PLACEMENT_3D('',#548,#419,#420);
#365=AXIS2_PLACEMENT_3D('',#556,#421,#422);
#366=AXIS2_PLACEMENT_3D('',#557,#423,#424);
#367=AXIS2_PLACEMENT_3D('',#561,#426,#427);
#368=AXIS2_PLACEMENT_3D('',#566,#430,#431);
#369=AXIS2_PLACEMENT_3D('',#571,#434,#435);
#370=AXIS2_PLACEMENT_3D('',#576,#438,#439);
#371=AXIS2_PLACEMENT_3D('',#579,#441,#442);
#372=AXIS2_PLACEMENT_3D('',#580,#443,#444);
#373=AXIS2_PLACEMENT_3D('',#581,#445,#446);
#374=AXIS2_PLACEMENT_3D('',#583,#448,#449);
#375=AXIS2_PLACEMENT_3D('',#584,#450,#451);
#376=AXIS2_PLACEMENT_3D('',#586,#453,#454);
#377=AXIS2_PLACEMENT_3D('',#587,#455,#456);
#378=AXIS2_PLACEMENT_3D('',#589,#458,#459);
#379=AXIS2_PLACEMENT_3D('',#590,#460,#461);
#380=AXIS2_PLACEMENT_3D('',#592,#463,#464);
#381=AXIS2_PLACEMENT_3D('',#593,#465,#466);
#382=AXIS2_PLACEMENT_3D('',#594,#467,#468);
#383=AXIS2_PLACEMENT_3D('',#595,#469,#470);
#384=AXIS2_PLACEMENT_3D('',#596,#471,#472);
#385=AXIS2_PLACEMENT_3D('',#598,#473,#474);
#386=AXIS2_PLACEMENT_3D('',#599,#475,#476);
#387=AXIS2_PLACEMENT_3D('',#601,#477,#478);
#388=AXIS2_PLACEMENT_3D('',#602,#479,#480);
#389=AXIS2_PLACEMENT_3D('',#605,#481,#482);
#390=AXIS2_PLACEMENT_3D('',#606,#483,#484);
#391=DIRECTION('',(0.,0.,1.));
#392=DIRECTION('',(1.,0.,0.));
#393=DIRECTION('',(0.,0.,1.));
#394=DIRECTION('',(1.,0.,0.));
#395=DIRECTION('',(0.,0.,1.));
#396=DIRECTION('',(1.,0.,0.));
#397=DIRECTION('',(0.,0.,1.));
#398=DIRECTION('',(1.,0.,0.));
#399=DIRECTION('',(0.,0.,-1.));
#400=DIRECTION('',(1.,0.,0.));
#401=DIRECTION('',(0.,0.,1.));
#402=DIRECTION('',(-1.,0.,0.));
#403=DIRECTION('',(0.,0.,1.));
#404=DIRECTION('',(1.,0.,0.));
#405=DIRECTION('',(0.,0.,-1.));
#406=DIRECTION('',(-1.,0.,0.));
#407=DIRECTION('',(0.,0.,-1.));
#408=DIRECTION('',(-1.,0.,0.));
#409=DIRECTION('',(-8.8603816295696E-16,0.,-1.));
#410=DIRECTION('',(-1.,0.,0.));
#411=DIRECTION('',(0.,0.,1.));
#412=DIRECTION('',(1.,0.,0.));
#413=DIRECTION('',(0.,0.,1.));
#414=DIRECTION('',(-1.,0.,0.));
#415=DIRECTION('',(0.,0.,1.));
#416=DIRECTION('',(-1.,0.,0.));
#417=DIRECTION('',(0.,0.,1.));
#418=DIRECTION('',(-1.,0.,0.));
#419=DIRECTION('',(0.,0.,1.));
#420=DIRECTION('',(-1.,0.,0.));
#421=DIRECTION('',(0.,0.,-1.));
#422=DIRECTION('',(-1.,0.,0.));
#423=DIRECTION('',(0.,0.,-1.));
#424=DIRECTION('',(1.,0.,0.));
#425=DIRECTION('',(0.,0.,1.));
#426=DIRECTION('',(0.707106781186547,0.,0.707106781186548));
#427=DIRECTION('',(-0.707106781186548,0.,0.707106781186547));
#428=DIRECTION('',(0.,0.,-1.));
#429=DIRECTION('',(0.,0.,1.));
#430=DIRECTION('',(-2.64204134232936E-15,-0.707106781186547,0.707106781186548));
#431=DIRECTION('',(2.64204134232937E-15,0.707106781186548,0.707106781186547));
#432=DIRECTION('',(0.,0.,-1.));
#433=DIRECTION('',(0.,0.,1.));
#434=DIRECTION('',(-0.707106781186547,1.65668806430732E-15,0.707106781186548));
#435=DIRECTION('',(0.707106781186548,-1.65668806430733E-15,0.707106781186547));
#436=DIRECTION('',(0.,0.,-1.));
#437=DIRECTION('',(0.,0.,1.));
#438=DIRECTION('',(8.28344032153661E-16,0.707106781186547,0.707106781186548));
#439=DIRECTION('',(-8.28344032153663E-16,-0.707106781186548,0.707106781186547));
#440=DIRECTION('',(0.,0.,-1.));
#441=DIRECTION('',(0.,0.,1.));
#442=DIRECTION('',(1.,0.,0.));
#443=DIRECTION('',(-8.28216786687697E-16,0.,-1.));
#444=DIRECTION('',(-1.,0.,8.28216786687697E-16));
#445=DIRECTION('',(0.,0.,-1.));
#446=DIRECTION('',(-1.,0.,-7.26567634723899E-17));
#447=DIRECTION('',(2.34291072916505E-15,1.,0.));
#448=DIRECTION('',(-0.707106781186547,1.65668806430732E-15,0.707106781186548));
#449=DIRECTION('',(-0.707106781186548,1.65666091955785E-15,-0.707106781186547));
#450=DIRECTION('',(-1.,2.34291072916505E-15,0.));
#451=DIRECTION('',(0.,0.,-1.));
#452=DIRECTION('',(-1.,3.7364106986726E-15,0.));
#453=DIRECTION('',(-2.64204134232936E-15,-0.707106781186547,0.707106781186548));
#454=DIRECTION('',(-2.64198385391268E-15,-0.707106781186548,-0.707106781186547));
#455=DIRECTION('',(-3.7364106986726E-15,-1.,0.));
#456=DIRECTION('',(0.,0.,-1.));
#457=DIRECTION('',(1.,-1.17145536458252E-15,0.));
#458=DIRECTION('',(8.28344032153661E-16,0.707106781186547,0.707106781186548));
#459=DIRECTION('',(8.28330459778925E-16,0.707106781186548,-0.707106781186547));
#460=DIRECTION('',(1.17145536458252E-15,1.,0.));
#461=DIRECTION('',(0.,0.,-1.));
#462=DIRECTION('',(0.,-1.,0.));
#463=DIRECTION('',(1.,0.,0.));
#464=DIRECTION('',(0.,0.,-1.));
#465=DIRECTION('',(0.707106781186547,0.,0.707106781186548));
#466=DIRECTION('',(0.707106781186548,0.,-0.707106781186547));
#467=DIRECTION('',(0.,0.,-1.));
#468=DIRECTION('',(-1.,0.,0.));
#469=DIRECTION('',(0.,0.,-1.));
#470=DIRECTION('',(-1.,0.,0.));
#471=DIRECTION('',(0.,0.,-1.));
#472=DIRECTION('',(1.,0.,0.));
#473=DIRECTION('',(0.,0.,1.));
#474=DIRECTION('',(1.,0.,0.));
#475=DIRECTION('',(0.,0.,1.));
#476=DIRECTION('',(1.,0.,0.));
#477=DIRECTION('',(0.,0.,1.));
#478=DIRECTION('',(1.,0.,0.));
#479=DIRECTION('',(0.,0.,1.));
#480=DIRECTION('',(-1.,0.,0.));
#481=DIRECTION('',(-6.50917016225414E-16,0.,1.));
#482=DIRECTION('',(1.,0.,6.85839198536531E-16));
#483=DIRECTION('',(0.,0.,1.));
#484=DIRECTION('',(1.,0.,-3.13961875101231E-16));
#485=CARTESIAN_POINT('',(0.,0.,0.));
#486=CARTESIAN_POINT('',(0.,0.,-20.));
#487=CARTESIAN_POINT('CRP',(-1.54034767428581,0.,-48.));
#488=CARTESIAN_POINT('CIP_DCSYS',(0.,0.,-48.));
#489=CARTESIAN_POINT('',(-1.54034767428581,0.,-31.));
#490=CARTESIAN_POINT('',(-1.02689844952387,0.,-31.));
#491=CARTESIAN_POINT('',(-0.513449224761937,0.,-31.));
#492=CARTESIAN_POINT('',(0.,0.,-31.));
#493=CARTESIAN_POINT('',(0.,0.,-36.9883333333333));
#494=CARTESIAN_POINT('',(0.,0.,-42.9766666666667));
#495=CARTESIAN_POINT('',(2.22044604925031E-16,0.,-48.965));
#496=CARTESIAN_POINT('',(-0.408331695414475,0.,-48.5566683045855));
#497=CARTESIAN_POINT('',(-0.816663390828951,0.,-48.148336609171));
#498=CARTESIAN_POINT('',(-1.22499508624343,0.,-47.7400049137565));
#499=CARTESIAN_POINT('',(-1.3301126155909,0.,-47.0566699425044));
#500=CARTESIAN_POINT('',(-1.43523014493836,0.,-46.3733349712522));
#501=CARTESIAN_POINT('',(-1.54034767428581,0.,-45.69));
#502=CARTESIAN_POINT('',(-1.54034767428581,0.,-40.7933333333333));
#503=CARTESIAN_POINT('',(-1.54034767428581,0.,-35.8966666666667));
#504=CARTESIAN_POINT('',(-1.54034767428581,0.,-31.));
#505=CARTESIAN_POINT('',(0.,0.,0.));
#506=CARTESIAN_POINT('',(0.,0.,-20.));
#507=CARTESIAN_POINT('',(0.,0.,-48.));
#508=CARTESIAN_POINT('',(0.,0.,-29.5));
#509=CARTESIAN_POINT('',(1.54034767428581,0.,-29.5));
#510=CARTESIAN_POINT('',(0.,0.,-31.));
#511=CARTESIAN_POINT('',(-1.54034767428581,0.,-31.));
#512=CARTESIAN_POINT('',(0.,0.,20.9080749503476));
#513=CARTESIAN_POINT('',(0.,0.,-5.563));
#514=CARTESIAN_POINT('',(-1.575,0.,-5.563));
#515=CARTESIAN_POINT('',(3.74679146783582E-15,0.,-29.5));
#516=CARTESIAN_POINT('',(-1.57499999999999,0.,-29.5));
#517=CARTESIAN_POINT('',(2.66453525910038E-15,0.,-30.7214555241319));
#518=CARTESIAN_POINT('',(0.,0.,0.));
#519=CARTESIAN_POINT('',(0.511999999999999,0.,0.));
#520=CARTESIAN_POINT('',(0.,0.,-1.));
#521=CARTESIAN_POINT('',(0.850672675004902,-1.25,-1.));
#522=CARTESIAN_POINT('',(1.25,-0.850672675004907,-1.));
#523=CARTESIAN_POINT('',(1.25,-0.850672675004909,-1.));
#524=CARTESIAN_POINT('',(1.25,-0.588667517197747,-0.852592176946496));
#525=CARTESIAN_POINT('',(1.25,-0.298970989897266,-0.738053050533629));
#526=CARTESIAN_POINT('',(1.25,0.29852721583725,-0.737946988853456));
#527=CARTESIAN_POINT('',(1.25,0.589387921750992,-0.852997486780057));
#528=CARTESIAN_POINT('',(1.25,0.850672675005046,-1.00000000000006));
#529=CARTESIAN_POINT('',(1.25,0.850672675005086,-1.00000000000001));
#530=CARTESIAN_POINT('',(0.,0.,-1.));
#531=CARTESIAN_POINT('',(0.850672675004908,1.25,-1.));
#532=CARTESIAN_POINT('',(0.850672675004909,1.25,-1.));
#533=CARTESIAN_POINT('',(0.588667517197748,1.25,-0.852592176946496));
#534=CARTESIAN_POINT('',(0.298970989897266,1.25,-0.738053050533629));
#535=CARTESIAN_POINT('',(-0.29852721583725,1.25,-0.737946988853456));
#536=CARTESIAN_POINT('',(-0.58938792175099,1.25,-0.852997486780056));
#537=CARTESIAN_POINT('',(-0.850672675005044,1.25,-1.00000000000006));
#538=CARTESIAN_POINT('',(-0.850672675005084,1.25,-1.00000000000001));
#539=CARTESIAN_POINT('',(0.,0.,-1.));
#540=CARTESIAN_POINT('',(-1.25,0.85067267500491,-1.));
#541=CARTESIAN_POINT('',(-1.25,0.850672675004921,-0.999999999999989));
#542=CARTESIAN_POINT('',(-1.25,0.58938792175088,-0.852997486780007));
#543=CARTESIAN_POINT('',(-1.25,0.298527215837156,-0.737946988853438));
#544=CARTESIAN_POINT('',(-1.25,-0.298970989897311,-0.738053050533647));
#545=CARTESIAN_POINT('',(-1.25,-0.588667517197764,-0.852592176946508));
#546=CARTESIAN_POINT('',(-1.25,-0.850672675004905,-1.));
#547=CARTESIAN_POINT('',(-1.25,-0.850672675004904,-1.));
#548=CARTESIAN_POINT('',(0.,0.,-1.));
#549=CARTESIAN_POINT('',(-0.850672675004911,-1.25,-1.));
#550=CARTESIAN_POINT('',(-0.850672675004922,-1.25,-0.999999999999989));
#551=CARTESIAN_POINT('',(-0.589387921750882,-1.25,-0.852997486780007));
#552=CARTESIAN_POINT('',(-0.298527215837158,-1.25,-0.737946988853438));
#553=CARTESIAN_POINT('',(0.298970989897309,-1.25,-0.738053050533647));
#554=CARTESIAN_POINT('',(0.588667517197763,-1.25,-0.852592176946507));
#555=CARTESIAN_POINT('',(0.850672675004903,-1.25,-1.));
#556=CARTESIAN_POINT('',(0.,0.,0.));
#557=CARTESIAN_POINT('',(0.,0.,-5.5));
#558=CARTESIAN_POINT('',(1.512,0.,-5.5));
#559=CARTESIAN_POINT('',(1.25,0.850672675004907,20.9080749503476));
#560=CARTESIAN_POINT('',(1.25,0.850672675004906,-5.));
#561=CARTESIAN_POINT('',(0.,0.,-3.75));
#562=CARTESIAN_POINT('',(1.25,-0.850672675004906,-5.));
#563=CARTESIAN_POINT('',(1.25,-0.850672675004907,20.9080749503476));
#564=CARTESIAN_POINT('',(0.850672675004902,-1.25,20.9080749503476));
#565=CARTESIAN_POINT('',(0.850672675004901,-1.25,-5.));
#566=CARTESIAN_POINT('',(0.,0.,-3.75));
#567=CARTESIAN_POINT('',(-0.85067267500491,-1.25,-5.));
#568=CARTESIAN_POINT('',(-0.850672675004911,-1.25,20.9080749503476));
#569=CARTESIAN_POINT('',(-1.25,-0.850672675004904,20.9080749503476));
#570=CARTESIAN_POINT('',(-1.25,-0.850672675004903,-5.));
#571=CARTESIAN_POINT('',(0.,0.,-3.75));
#572=CARTESIAN_POINT('',(-1.25,0.850672675004909,-5.));
#573=CARTESIAN_POINT('',(-1.25,0.85067267500491,20.9080749503476));
#574=CARTESIAN_POINT('',(-0.850672675004905,1.25,20.9080749503476));
#575=CARTESIAN_POINT('',(-0.850672675004904,1.25,-5.));
#576=CARTESIAN_POINT('',(0.,0.,-3.75));
#577=CARTESIAN_POINT('',(0.850672675004907,1.25,-5.));
#578=CARTESIAN_POINT('',(0.850672675004908,1.25,20.9080749503476));
#579=CARTESIAN_POINT('',(0.,0.,20.9080749503476));
#580=CARTESIAN_POINT('',(1.77500000000001,0.,-7.35042398185334E-16));
#581=CARTESIAN_POINT('',(0.,0.,-6.763));
#582=CARTESIAN_POINT('',(-1.24999999999999,3.75,-5.));
#583=CARTESIAN_POINT('',(-1.24999999999999,3.75,-5.));
#584=CARTESIAN_POINT('',(-1.24999999999999,3.75,10.));
#585=CARTESIAN_POINT('',(-3.75,-1.24999999999999,-5.));
#586=CARTESIAN_POINT('',(-3.75,-1.24999999999999,-5.));
#587=CARTESIAN_POINT('',(-3.75,-1.24999999999999,10.));
#588=CARTESIAN_POINT('',(3.75,1.25,-5.));
#589=CARTESIAN_POINT('',(3.75,1.25,-5.));
#590=CARTESIAN_POINT('',(3.75,1.25,10.));
#591=CARTESIAN_POINT('',(1.25,-3.75,-5.));
#592=CARTESIAN_POINT('',(1.25,-3.75,10.));
#593=CARTESIAN_POINT('',(1.25,-3.75,-5.));
#594=CARTESIAN_POINT('',(3.54034767428582,0.,-29.5));
#595=CARTESIAN_POINT('',(0.,0.,-31.));
#596=CARTESIAN_POINT('',(0.,0.,-31.));
#597=CARTESIAN_POINT('',(1.54034767428581,0.,-31.));
#598=CARTESIAN_POINT('',(0.,0.,-31.));
#599=CARTESIAN_POINT('',(0.,0.,-45.69));
#600=CARTESIAN_POINT('',(1.54034767428581,0.,-45.69));
#601=CARTESIAN_POINT('',(0.,0.,20.9080749503476));
#602=CARTESIAN_POINT('',(1.35800180224674E-14,0.,-47.7400049137565));
#603=CARTESIAN_POINT('',(-1.22499508624343,0.,-47.7400049137565));
#604=CARTESIAN_POINT('',(1.4432899320127E-14,0.,-48.965));
#605=CARTESIAN_POINT('',(1.33226762955019E-14,0.,-47.3446523257142));
#606=CARTESIAN_POINT('',(0.,0.,-50.));
#607=MECHANICAL_DESIGN_GEOMETRIC_PRESENTATION_REPRESENTATION('',(#322,#323,
#324,#325,#326,#327,#328,#329,#330),#608);
#608=(
GEOMETRIC_REPRESENTATION_CONTEXT(3)
GLOBAL_UNCERTAINTY_ASSIGNED_CONTEXT((#609))
GLOBAL_UNIT_ASSIGNED_CONTEXT((#615,#611,#610))
REPRESENTATION_CONTEXT('TOOL','TOP_LEVEL_ASSEMBLY_PART')
);
#609=UNCERTAINTY_MEASURE_WITH_UNIT(LENGTH_MEASURE(0.0508),#615,
'DISTANCE_ACCURACY_VALUE','Maximum Tolerance applied to model');
#610=(
NAMED_UNIT(*)
SI_UNIT($,.STERADIAN.)
SOLID_ANGLE_UNIT()
);
#611=(
CONVERSION_BASED_UNIT('DEGREE',#613)
NAMED_UNIT(#612)
PLANE_ANGLE_UNIT()
);
#612=DIMENSIONAL_EXPONENTS(0.,0.,0.,0.,0.,0.,0.);
#613=PLANE_ANGLE_MEASURE_WITH_UNIT(PLANE_ANGLE_MEASURE(0.0174532925),#614);
#614=(
NAMED_UNIT(*)
PLANE_ANGLE_UNIT()
SI_UNIT($,.RADIAN.)
);
#615=(
LENGTH_UNIT()
NAMED_UNIT(*)
SI_UNIT(.MILLI.,.METRE.)
);
ENDSEC;
END-ISO-10303-21;
