ISO-10303-21;
HEADER;
/* Generated by software containing ST-Developer
 * from STEP Tools, Inc. (www.steptools.com) 
 */
/* OPTION: using custom schema-name function */

FILE_DESCRIPTION(
/* description */ (''),
/* implementation_level */ '2;1');

FILE_NAME(
/* name */ '1641876870063.stp',
/* time_stamp */ '2022-01-11T10:24:41+06:00',
/* author */ (''),
/* organization */ ('SMS'),
/* preprocessor_version */ 'ST-DEVELOPER v16.7',
/* originating_system */ 'SIEMENS PLM Software NX 12.0',
/* authorisation */ '');

FILE_SCHEMA (('AUTOMOTIVE_DESIGN { 1 0 10303 214 3 1 1 1 }'));
ENDSEC;

DATA;
#10=CONSTRUCTIVE_GEOMETRY_REPRESENTATION_RELATIONSHIP(
'supplemental geometry','',#26,#11);
#11=CONSTRUCTIVE_GEOMETRY_REPRESENTATION('supplemental geometry',(#103,
#104),#157);
#12=GEOMETRICALLY_BOUNDED_WIREFRAME_SHAPE_REPRESENTATION(
'203898782mod000_00-None',(#27),#157);
#13=SHAPE_REPRESENTATION_RELATIONSHIP('None',
'relationship between 203898782mod000_00-None and 203898782mod000_00-N
one',#26,#15);
#14=SHAPE_REPRESENTATION_RELATIONSHIP('None',
'relationship between 203898782mod000_00-None and 203898782mod000_00-N
one',#26,#12);
#15=ADVANCED_BREP_SHAPE_REPRESENTATION('203898782mod000_00-None',(#33),
#157);
#16=SHAPE_DEFINITION_REPRESENTATION(#17,#26);
#17=PRODUCT_DEFINITION_SHAPE('','',#18);
#18=PRODUCT_DEFINITION(' ','',#20,#19);
#19=PRODUCT_DEFINITION_CONTEXT('part definition',#25,'design');
#20=PRODUCT_DEFINITION_FORMATION_WITH_SPECIFIED_SOURCE(' ',' ',#22,
 .NOT_KNOWN.);
#21=PRODUCT_RELATED_PRODUCT_CATEGORY('part','',(#22));
#22=PRODUCT('203898782mod000_00','203898782mod000_00',' ',(#23));
#23=PRODUCT_CONTEXT(' ',#25,'mechanical');
#24=APPLICATION_PROTOCOL_DEFINITION('international standard',
'automotive_design',2010,#25);
#25=APPLICATION_CONTEXT(
'core data for automotive mechanical design processes');
#26=SHAPE_REPRESENTATION('203898782mod000_00-None',(#102),#157);
#27=GEOMETRIC_CURVE_SET('None',(#139,#140));
#28=SURFACE_STYLE_USAGE(.BOTH.,#29);
#29=SURFACE_SIDE_STYLE('',(#30));
#30=SURFACE_STYLE_FILL_AREA(#31);
#31=FILL_AREA_STYLE('',(#32));
#32=FILL_AREA_STYLE_COLOUR('',#101);
#33=MANIFOLD_SOLID_BREP('NOCUT',#34);
#34=CLOSED_SHELL('',(#40,#41,#42,#43,#44));
#35=PLANE('',#112);
#36=PLANE('',#113);
#37=FACE_OUTER_BOUND('',#59,.T.);
#38=FACE_OUTER_BOUND('',#60,.T.);
#39=CONICAL_SURFACE('',#109,10.,75.);
#40=ADVANCED_FACE('',(#47,#48),#45,.T.);
#41=ADVANCED_FACE('',(#49,#50),#39,.T.);
#42=ADVANCED_FACE('',(#51,#52),#46,.T.);
#43=ADVANCED_FACE('',(#37),#35,.T.);
#44=ADVANCED_FACE('',(#38),#36,.T.);
#45=CYLINDRICAL_SURFACE('',#107,10.);
#46=CYLINDRICAL_SURFACE('',#111,17.);
#47=FACE_BOUND('',#53,.T.);
#48=FACE_BOUND('',#54,.T.);
#49=FACE_BOUND('',#55,.T.);
#50=FACE_BOUND('',#56,.T.);
#51=FACE_BOUND('',#57,.T.);
#52=FACE_BOUND('',#58,.T.);
#53=EDGE_LOOP('',(#61));
#54=EDGE_LOOP('',(#62));
#55=EDGE_LOOP('',(#63));
#56=EDGE_LOOP('',(#64));
#57=EDGE_LOOP('',(#65));
#58=EDGE_LOOP('',(#66));
#59=EDGE_LOOP('',(#67));
#60=EDGE_LOOP('',(#68));
#61=ORIENTED_EDGE('',*,*,#73,.T.);
#62=ORIENTED_EDGE('',*,*,#74,.T.);
#63=ORIENTED_EDGE('',*,*,#75,.T.);
#64=ORIENTED_EDGE('',*,*,#73,.F.);
#65=ORIENTED_EDGE('',*,*,#76,.T.);
#66=ORIENTED_EDGE('',*,*,#75,.F.);
#67=ORIENTED_EDGE('',*,*,#76,.F.);
#68=ORIENTED_EDGE('',*,*,#74,.F.);
#69=VERTEX_POINT('',#144);
#70=VERTEX_POINT('',#146);
#71=VERTEX_POINT('',#149);
#72=VERTEX_POINT('',#152);
#73=EDGE_CURVE('',#69,#69,#77,.T.);
#74=EDGE_CURVE('',#70,#70,#78,.T.);
#75=EDGE_CURVE('',#71,#71,#79,.T.);
#76=EDGE_CURVE('',#72,#72,#80,.T.);
#77=CIRCLE('',#105,10.);
#78=CIRCLE('',#106,10.);
#79=CIRCLE('',#108,17.);
#80=CIRCLE('',#110,17.);
#81=CURVE_STYLE('',#83,POSITIVE_LENGTH_MEASURE(0.18),#100);
#82=CURVE_STYLE('',#84,POSITIVE_LENGTH_MEASURE(0.18),#100);
#83=DRAUGHTING_PRE_DEFINED_CURVE_FONT('continuous');
#84=DRAUGHTING_PRE_DEFINED_CURVE_FONT('continuous');
#85=PRESENTATION_LAYER_ASSIGNMENT('1','Layer 1',(#139,#140,#103,#104,#33));
#86=STYLED_ITEM('',(#91),#139);
#87=STYLED_ITEM('',(#92),#140);
#88=STYLED_ITEM('',(#93),#103);
#89=STYLED_ITEM('',(#94),#104);
#90=STYLED_ITEM('',(#95),#33);
#91=PRESENTATION_STYLE_ASSIGNMENT((#96));
#92=PRESENTATION_STYLE_ASSIGNMENT((#97));
#93=PRESENTATION_STYLE_ASSIGNMENT((#81));
#94=PRESENTATION_STYLE_ASSIGNMENT((#82));
#95=PRESENTATION_STYLE_ASSIGNMENT((#28));
#96=POINT_STYLE('',#98,POSITIVE_LENGTH_MEASURE(3.),#100);
#97=POINT_STYLE('',#99,POSITIVE_LENGTH_MEASURE(3.),#100);
#98=PRE_DEFINED_POINT_MARKER_SYMBOL('plus');
#99=PRE_DEFINED_POINT_MARKER_SYMBOL('plus');
#100=COLOUR_RGB('Medium Maroon',0.6,0.4,0.4);
#101=COLOUR_RGB('Medium Gray',0.501960784313725,0.501960784313725,0.501960784313725);
#102=AXIS2_PLACEMENT_3D('',#138,#114,#115);
#103=AXIS2_PLACEMENT_3D('PCS',#141,#116,#117);
#104=AXIS2_PLACEMENT_3D('MCS',#142,#118,#119);
#105=AXIS2_PLACEMENT_3D('',#143,#120,#121);
#106=AXIS2_PLACEMENT_3D('',#145,#122,#123);
#107=AXIS2_PLACEMENT_3D('',#147,#124,#125);
#108=AXIS2_PLACEMENT_3D('',#148,#126,#127);
#109=AXIS2_PLACEMENT_3D('',#150,#128,#129);
#110=AXIS2_PLACEMENT_3D('',#151,#130,#131);
#111=AXIS2_PLACEMENT_3D('',#153,#132,#133);
#112=AXIS2_PLACEMENT_3D('',#154,#134,#135);
#113=AXIS2_PLACEMENT_3D('',#155,#136,#137);
#114=DIRECTION('',(0.,0.,1.));
#115=DIRECTION('',(1.,0.,0.));
#116=DIRECTION('',(0.,0.,1.));
#117=DIRECTION('',(1.,0.,0.));
#118=DIRECTION('',(0.,0.,1.));
#119=DIRECTION('',(1.,0.,0.));
#120=DIRECTION('',(-2.20080218201303E-15,0.,1.));
#121=DIRECTION('',(1.,0.,2.16840434497101E-15));
#122=DIRECTION('',(0.,0.,-1.));
#123=DIRECTION('',(1.,0.,0.));
#124=DIRECTION('',(-2.20080218201303E-15,0.,1.));
#125=DIRECTION('',(1.,0.,2.08166817117217E-15));
#126=DIRECTION('',(-2.20080218201303E-15,0.,1.));
#127=DIRECTION('',(1.,0.,2.24493626302881E-15));
#128=DIRECTION('',(2.20080218201303E-15,0.,-1.));
#129=DIRECTION('',(-1.,0.,-2.19178547170685E-15));
#130=DIRECTION('',(-2.20080218201303E-15,0.,1.));
#131=DIRECTION('',(1.,0.,2.24493626302881E-15));
#132=DIRECTION('',(-2.20080218201303E-15,0.,1.));
#133=DIRECTION('',(1.,0.,2.24493626302881E-15));
#134=DIRECTION('',(2.20080218201303E-15,0.,-1.));
#135=DIRECTION('',(-1.,0.,-2.19962936753859E-15));
#136=DIRECTION('',(0.,0.,1.));
#137=DIRECTION('',(1.,0.,0.));
#138=CARTESIAN_POINT('',(0.,0.,0.));
#139=CARTESIAN_POINT('',(0.,0.,0.));
#140=CARTESIAN_POINT('',(0.,0.,0.));
#141=CARTESIAN_POINT('',(0.,0.,0.));
#142=CARTESIAN_POINT('',(0.,0.,0.));
#143=CARTESIAN_POINT('',(1.47706864664875E-14,0.,-6.729));
#144=CARTESIAN_POINT('',(10.,0.,-6.72899999999998));
#145=CARTESIAN_POINT('',(-3.85114162781906E-17,0.,0.));
#146=CARTESIAN_POINT('',(10.,0.,0.));
#147=CARTESIAN_POINT('',(5.4385125742722E-14,0.,-24.729));
#148=CARTESIAN_POINT('',(1.88986086380848E-14,0.,-8.60464434701786));
#149=CARTESIAN_POINT('',(17.,0.,-8.60464434701782));
#150=CARTESIAN_POINT('',(1.47706864664875E-14,0.,-6.729));
#151=CARTESIAN_POINT('',(5.4385125742722E-14,0.,-24.729));
#152=CARTESIAN_POINT('',(17.0000000000001,0.,-24.729));
#153=CARTESIAN_POINT('',(5.4385125742722E-14,0.,-24.729));
#154=CARTESIAN_POINT('',(-16.9999999999999,0.,-24.729));
#155=CARTESIAN_POINT('',(0.,0.,0.));
#156=MECHANICAL_DESIGN_GEOMETRIC_PRESENTATION_REPRESENTATION('',(#86,#87,
#88,#89,#90),#157);
#157=(
GEOMETRIC_REPRESENTATION_CONTEXT(3)
GLOBAL_UNCERTAINTY_ASSIGNED_CONTEXT((#158))
GLOBAL_UNIT_ASSIGNED_CONTEXT((#164,#160,#159))
REPRESENTATION_CONTEXT('1641876870063','TOP_LEVEL_ASSEMBLY_PART')
);
#158=UNCERTAINTY_MEASURE_WITH_UNIT(LENGTH_MEASURE(2.E-5),#164,
'DISTANCE_ACCURACY_VALUE','Maximum Tolerance applied to model');
#159=(
NAMED_UNIT(*)
SI_UNIT($,.STERADIAN.)
SOLID_ANGLE_UNIT()
);
#160=(
CONVERSION_BASED_UNIT('DEGREE',#162)
NAMED_UNIT(#161)
PLANE_ANGLE_UNIT()
);
#161=DIMENSIONAL_EXPONENTS(0.,0.,0.,0.,0.,0.,0.);
#162=PLANE_ANGLE_MEASURE_WITH_UNIT(PLANE_ANGLE_MEASURE(0.0174532925),#163);
#163=(
NAMED_UNIT(*)
PLANE_ANGLE_UNIT()
SI_UNIT($,.RADIAN.)
);
#164=(
LENGTH_UNIT()
NAMED_UNIT(*)
SI_UNIT(.MILLI.,.METRE.)
);
ENDSEC;
END-ISO-10303-21;
