ISO-10303-21;
HEADER;
/* Generated by software containing ST-Developer
 * from STEP Tools, Inc. (www.steptools.com) 
 */
/* OPTION: using custom schema-name function */

FILE_DESCRIPTION(
/* description */ (''),
/* implementation_level */ '2;1');

FILE_NAME(
/* name */ '1642495781602.stp',
/* time_stamp */ '2022-01-18T14:19:53+06:00',
/* author */ (''),
/* organization */ ('SMS'),
/* preprocessor_version */ 'ST-DEVELOPER v16.7',
/* originating_system */ 'SIEMENS PLM Software NX 12.0',
/* authorisation */ '');

FILE_SCHEMA (('AUTOMOTIVE_DESIGN { 1 0 10303 214 3 1 1 1 }'));
ENDSEC;

DATA;
#10=CONSTRUCTIVE_GEOMETRY_REPRESENTATION_RELATIONSHIP(
'supplemental geometry','',#26,#11);
#11=CONSTRUCTIVE_GEOMETRY_REPRESENTATION('supplemental geometry',(#114,
#115),#177);
#12=GEOMETRICALLY_BOUNDED_WIREFRAME_SHAPE_REPRESENTATION(
'203898143mod000_00-None',(#27),#177);
#13=SHAPE_REPRESENTATION_RELATIONSHIP('None',
'relationship between 203898143mod000_00-None and 203898143mod000_00-N
one',#26,#15);
#14=SHAPE_REPRESENTATION_RELATIONSHIP('None',
'relationship between 203898143mod000_00-None and 203898143mod000_00-N
one',#26,#12);
#15=ADVANCED_BREP_SHAPE_REPRESENTATION('203898143mod000_00-None',(#33),
#177);
#16=SHAPE_DEFINITION_REPRESENTATION(#17,#26);
#17=PRODUCT_DEFINITION_SHAPE('','',#18);
#18=PRODUCT_DEFINITION(' ','',#20,#19);
#19=PRODUCT_DEFINITION_CONTEXT('part definition',#25,'design');
#20=PRODUCT_DEFINITION_FORMATION_WITH_SPECIFIED_SOURCE(' ',' ',#22,
 .NOT_KNOWN.);
#21=PRODUCT_RELATED_PRODUCT_CATEGORY('part','',(#22));
#22=PRODUCT('203898143mod000_00','203898143mod000_00','NOCUT',(#23));
#23=PRODUCT_CONTEXT(' ',#25,'mechanical');
#24=APPLICATION_PROTOCOL_DEFINITION('international standard',
'automotive_design',2010,#25);
#25=APPLICATION_CONTEXT(
'core data for automotive mechanical design processes');
#26=SHAPE_REPRESENTATION('203898143mod000_00-None',(#113),#177);
#27=GEOMETRIC_CURVE_SET('None',(#156,#157));
#28=SURFACE_STYLE_USAGE(.BOTH.,#29);
#29=SURFACE_SIDE_STYLE('',(#30));
#30=SURFACE_STYLE_FILL_AREA(#31);
#31=FILL_AREA_STYLE('',(#32));
#32=FILL_AREA_STYLE_COLOUR('',#112);
#33=MANIFOLD_SOLID_BREP('NOCUT',#34);
#34=CLOSED_SHELL('',(#41,#42,#43,#44,#45,#46));
#35=PLANE('',#124);
#36=PLANE('',#126);
#37=FACE_OUTER_BOUND('',#63,.T.);
#38=FACE_OUTER_BOUND('',#66,.T.);
#39=CYLINDRICAL_SURFACE('',#123,22.);
#40=CYLINDRICAL_SURFACE('',#125,16.);
#41=ADVANCED_FACE('',(#49,#50),#47,.T.);
#42=ADVANCED_FACE('',(#51,#52),#48,.T.);
#43=ADVANCED_FACE('',(#53,#54),#39,.T.);
#44=ADVANCED_FACE('',(#37),#35,.T.);
#45=ADVANCED_FACE('',(#55,#56),#40,.T.);
#46=ADVANCED_FACE('',(#38),#36,.T.);
#47=CONICAL_SURFACE('',#118,15.25,44.9999999999999);
#48=CONICAL_SURFACE('',#121,16.,75.);
#49=FACE_BOUND('',#57,.T.);
#50=FACE_BOUND('',#58,.T.);
#51=FACE_BOUND('',#59,.T.);
#52=FACE_BOUND('',#60,.T.);
#53=FACE_BOUND('',#61,.T.);
#54=FACE_BOUND('',#62,.T.);
#55=FACE_BOUND('',#64,.T.);
#56=FACE_BOUND('',#65,.T.);
#57=EDGE_LOOP('',(#67));
#58=EDGE_LOOP('',(#68));
#59=EDGE_LOOP('',(#69));
#60=EDGE_LOOP('',(#70));
#61=EDGE_LOOP('',(#71));
#62=EDGE_LOOP('',(#72));
#63=EDGE_LOOP('',(#73));
#64=EDGE_LOOP('',(#74));
#65=EDGE_LOOP('',(#75));
#66=EDGE_LOOP('',(#76));
#67=ORIENTED_EDGE('',*,*,#82,.T.);
#68=ORIENTED_EDGE('',*,*,#83,.T.);
#69=ORIENTED_EDGE('',*,*,#84,.T.);
#70=ORIENTED_EDGE('',*,*,#85,.F.);
#71=ORIENTED_EDGE('',*,*,#86,.T.);
#72=ORIENTED_EDGE('',*,*,#84,.F.);
#73=ORIENTED_EDGE('',*,*,#86,.F.);
#74=ORIENTED_EDGE('',*,*,#85,.T.);
#75=ORIENTED_EDGE('',*,*,#82,.F.);
#76=ORIENTED_EDGE('',*,*,#83,.F.);
#77=VERTEX_POINT('',#161);
#78=VERTEX_POINT('',#163);
#79=VERTEX_POINT('',#166);
#80=VERTEX_POINT('',#168);
#81=VERTEX_POINT('',#171);
#82=EDGE_CURVE('',#77,#77,#87,.T.);
#83=EDGE_CURVE('',#78,#78,#88,.T.);
#84=EDGE_CURVE('',#79,#79,#89,.T.);
#85=EDGE_CURVE('',#80,#80,#90,.T.);
#86=EDGE_CURVE('',#81,#81,#91,.T.);
#87=CIRCLE('',#116,16.);
#88=CIRCLE('',#117,15.575);
#89=CIRCLE('',#119,22.);
#90=CIRCLE('',#120,16.);
#91=CIRCLE('',#122,22.);
#92=CURVE_STYLE('',#94,POSITIVE_LENGTH_MEASURE(0.18),#111);
#93=CURVE_STYLE('',#95,POSITIVE_LENGTH_MEASURE(0.18),#111);
#94=DRAUGHTING_PRE_DEFINED_CURVE_FONT('continuous');
#95=DRAUGHTING_PRE_DEFINED_CURVE_FONT('continuous');
#96=PRESENTATION_LAYER_ASSIGNMENT('1','Layer 1',(#156,#157,#114,#115,#33));
#97=STYLED_ITEM('',(#102),#156);
#98=STYLED_ITEM('',(#103),#157);
#99=STYLED_ITEM('',(#104),#114);
#100=STYLED_ITEM('',(#105),#115);
#101=STYLED_ITEM('',(#106),#33);
#102=PRESENTATION_STYLE_ASSIGNMENT((#107));
#103=PRESENTATION_STYLE_ASSIGNMENT((#108));
#104=PRESENTATION_STYLE_ASSIGNMENT((#92));
#105=PRESENTATION_STYLE_ASSIGNMENT((#93));
#106=PRESENTATION_STYLE_ASSIGNMENT((#28));
#107=POINT_STYLE('',#109,POSITIVE_LENGTH_MEASURE(3.),#111);
#108=POINT_STYLE('',#110,POSITIVE_LENGTH_MEASURE(3.),#111);
#109=PRE_DEFINED_POINT_MARKER_SYMBOL('plus');
#110=PRE_DEFINED_POINT_MARKER_SYMBOL('plus');
#111=COLOUR_RGB('Medium Maroon',0.6,0.4,0.4);
#112=COLOUR_RGB('Medium Gray',0.501960784313725,0.501960784313725,0.501960784313725);
#113=AXIS2_PLACEMENT_3D('',#155,#127,#128);
#114=AXIS2_PLACEMENT_3D('PCS',#158,#129,#130);
#115=AXIS2_PLACEMENT_3D('MCS',#159,#131,#132);
#116=AXIS2_PLACEMENT_3D('',#160,#133,#134);
#117=AXIS2_PLACEMENT_3D('',#162,#135,#136);
#118=AXIS2_PLACEMENT_3D('',#164,#137,#138);
#119=AXIS2_PLACEMENT_3D('',#165,#139,#140);
#120=AXIS2_PLACEMENT_3D('',#167,#141,#142);
#121=AXIS2_PLACEMENT_3D('',#169,#143,#144);
#122=AXIS2_PLACEMENT_3D('',#170,#145,#146);
#123=AXIS2_PLACEMENT_3D('',#172,#147,#148);
#124=AXIS2_PLACEMENT_3D('',#173,#149,#150);
#125=AXIS2_PLACEMENT_3D('',#174,#151,#152);
#126=AXIS2_PLACEMENT_3D('',#175,#153,#154);
#127=DIRECTION('',(0.,0.,1.));
#128=DIRECTION('',(1.,0.,0.));
#129=DIRECTION('',(0.,0.,1.));
#130=DIRECTION('',(1.,0.,0.));
#131=DIRECTION('',(0.,0.,1.));
#132=DIRECTION('',(1.,0.,0.));
#133=DIRECTION('',(-2.23188842670253E-15,0.,1.));
#134=DIRECTION('',(1.,0.,2.23277884896234E-15));
#135=DIRECTION('',(0.,0.,-1.));
#136=DIRECTION('',(1.,0.,0.));
#137=DIRECTION('',(2.23188842670253E-15,0.,-1.));
#138=DIRECTION('',(-1.,0.,-2.16658888701167E-15));
#139=DIRECTION('',(-2.23188842670253E-15,0.,1.));
#140=DIRECTION('',(1.,0.,2.20782987851594E-15));
#141=DIRECTION('',(-2.23188842670253E-15,0.,1.));
#142=DIRECTION('',(1.,0.,2.27682456221956E-15));
#143=DIRECTION('',(2.23188842670253E-15,0.,-1.));
#144=DIRECTION('',(-1.,0.,-2.24751947928032E-15));
#145=DIRECTION('',(-2.23188842670253E-15,0.,1.));
#146=DIRECTION('',(1.,0.,2.20782987851594E-15));
#147=DIRECTION('',(-2.23188842670253E-15,0.,1.));
#148=DIRECTION('',(1.,0.,2.20782987851594E-15));
#149=DIRECTION('',(2.23188842670253E-15,0.,-1.));
#150=DIRECTION('',(-1.,0.,-2.23432383705813E-15));
#151=DIRECTION('',(-2.23188842670253E-15,0.,1.));
#152=DIRECTION('',(1.,0.,2.16840434497101E-15));
#153=DIRECTION('',(0.,0.,1.));
#154=DIRECTION('',(1.,0.,0.));
#155=CARTESIAN_POINT('',(0.,0.,0.));
#156=CARTESIAN_POINT('',(0.,0.,0.));
#157=CARTESIAN_POINT('',(0.,0.,0.));
#158=CARTESIAN_POINT('',(0.,0.,0.));
#159=CARTESIAN_POINT('',(0.,0.,0.));
#160=CARTESIAN_POINT('',(3.57700559214864E-15,0.,-0.425000000000002));
#161=CARTESIAN_POINT('',(16.,0.,-0.424999999999966));
#162=CARTESIAN_POINT('',(3.73901152566919E-14,0.,0.));
#163=CARTESIAN_POINT('',(15.575,0.,0.));
#164=CARTESIAN_POINT('',(1.90308927212174E-15,0.,0.324999999999999));
#165=CARTESIAN_POINT('',(3.00420581750375E-14,0.,-12.2826951545867));
#166=CARTESIAN_POINT('',(22.,0.,-12.2826951545867));
#167=CARTESIAN_POINT('',(2.64538619658496E-14,0.,-10.675));
#168=CARTESIAN_POINT('',(16.,0.,-10.675));
#169=CARTESIAN_POINT('',(2.64538619658496E-14,0.,-10.675));
#170=CARTESIAN_POINT('',(9.1178626340223E-14,0.,-39.675));
#171=CARTESIAN_POINT('',(22.0000000000001,0.,-39.6749999999999));
#172=CARTESIAN_POINT('',(9.1178626340223E-14,0.,-39.675));
#173=CARTESIAN_POINT('',(-21.9999999999999,0.,-39.675));
#174=CARTESIAN_POINT('',(9.1178626340223E-14,0.,-39.675));
#175=CARTESIAN_POINT('',(0.,0.,0.));
#176=MECHANICAL_DESIGN_GEOMETRIC_PRESENTATION_REPRESENTATION('',(#97,#98,
#99,#100,#101),#177);
#177=(
GEOMETRIC_REPRESENTATION_CONTEXT(3)
GLOBAL_UNCERTAINTY_ASSIGNED_CONTEXT((#178))
GLOBAL_UNIT_ASSIGNED_CONTEXT((#184,#180,#179))
REPRESENTATION_CONTEXT('1642495781602','TOP_LEVEL_ASSEMBLY_PART')
);
#178=UNCERTAINTY_MEASURE_WITH_UNIT(LENGTH_MEASURE(2.E-5),#184,
'DISTANCE_ACCURACY_VALUE','Maximum Tolerance applied to model');
#179=(
NAMED_UNIT(*)
SI_UNIT($,.STERADIAN.)
SOLID_ANGLE_UNIT()
);
#180=(
CONVERSION_BASED_UNIT('DEGREE',#182)
NAMED_UNIT(#181)
PLANE_ANGLE_UNIT()
);
#181=DIMENSIONAL_EXPONENTS(0.,0.,0.,0.,0.,0.,0.);
#182=PLANE_ANGLE_MEASURE_WITH_UNIT(PLANE_ANGLE_MEASURE(0.0174532925),#183);
#183=(
NAMED_UNIT(*)
PLANE_ANGLE_UNIT()
SI_UNIT($,.RADIAN.)
);
#184=(
LENGTH_UNIT()
NAMED_UNIT(*)
SI_UNIT(.MILLI.,.METRE.)
);
ENDSEC;
END-ISO-10303-21;
