ISO-10303-21;
HEADER;
/* Generated by software containing ST-Developer
 * from STEP Tools, Inc. (www.steptools.com) 
 */
/* OPTION: using custom schema-name function */

FILE_DESCRIPTION(
/* description */ (''),
/* implementation_level */ '2;1');

FILE_NAME(
/* name */ '862.1-3000-480A1-GM_BAS.stp',
/* time_stamp */ '2021-09-08T22:01:46-06:00',
/* author */ (''),
/* organization */ (''),
/* preprocessor_version */ 'ST-DEVELOPER v16.7',
/* originating_system */ 'SIEMENS PLM Software NX 12.0',
/* authorisation */ '');

FILE_SCHEMA (('AUTOMOTIVE_DESIGN { 1 0 10303 214 3 1 1 1 }'));
ENDSEC;

DATA;
#10=CONSTRUCTIVE_GEOMETRY_REPRESENTATION_RELATIONSHIP(
'supplemental geometry','',#34,#11);
#11=CONSTRUCTIVE_GEOMETRY_REPRESENTATION('supplemental geometry',(#343,
#344,#345,#346),#496);
#12=GEOMETRICALLY_BOUNDED_WIREFRAME_SHAPE_REPRESENTATION(
'862.1-3000-480A1-GM_BAS-None',(#35),#496);
#13=PROPERTY_DEFINITION_REPRESENTATION(#17,#15);
#14=PROPERTY_DEFINITION_REPRESENTATION(#18,#16);
#15=REPRESENTATION('',(#19),#496);
#16=REPRESENTATION('',(#20),#496);
#17=PROPERTY_DEFINITION('pmi validation property','',#25);
#18=PROPERTY_DEFINITION('pmi validation property','',#25);
#19=VALUE_REPRESENTATION_ITEM('number of annotations',COUNT_MEASURE(0.));
#20=VALUE_REPRESENTATION_ITEM('number of views',COUNT_MEASURE(0.));
#21=SHAPE_REPRESENTATION_RELATIONSHIP('None',
'relationship between 862.1-3000-480A1-GM_BAS-None and 862.1-3000-480A
1-GM_BAS-None',#34,#23);
#22=SHAPE_REPRESENTATION_RELATIONSHIP('None',
'relationship between 862.1-3000-480A1-GM_BAS-None and 862.1-3000-480A
1-GM_BAS-None',#34,#12);
#23=ADVANCED_BREP_SHAPE_REPRESENTATION('862.1-3000-480A1-GM_BAS-None',(#52,
#53,#54),#496);
#24=SHAPE_DEFINITION_REPRESENTATION(#25,#34);
#25=PRODUCT_DEFINITION_SHAPE('','',#26);
#26=PRODUCT_DEFINITION(' ','',#28,#27);
#27=PRODUCT_DEFINITION_CONTEXT('part definition',#33,'design');
#28=PRODUCT_DEFINITION_FORMATION_WITH_SPECIFIED_SOURCE(' ',' ',#30,
 .NOT_KNOWN.);
#29=PRODUCT_RELATED_PRODUCT_CATEGORY('part','',(#30));
#30=PRODUCT('862.1-3000-480A1-GM_BAS','862.1-3000-480A1-GM_BAS',' ',(#31));
#31=PRODUCT_CONTEXT(' ',#33,'mechanical');
#32=APPLICATION_PROTOCOL_DEFINITION('international standard',
'automotive_design',2010,#33);
#33=APPLICATION_CONTEXT(
'core data for automotive mechanical design processes');
#34=SHAPE_REPRESENTATION('862.1-3000-480A1-GM_BAS-None',(#341),#496);
#35=GEOMETRIC_CURVE_SET('None',(#435,#436,#437,#438,#439,#206,#207,#208,
#209,#210,#211,#212,#213,#214,#215,#216,#217,#218,#219,#220,#221,#222));
#36=VERTEX_LOOP('',#138);
#37=SURFACE_STYLE_USAGE(.BOTH.,#40);
#38=SURFACE_STYLE_USAGE(.BOTH.,#41);
#39=SURFACE_STYLE_USAGE(.BOTH.,#42);
#40=SURFACE_SIDE_STYLE('',(#43));
#41=SURFACE_SIDE_STYLE('',(#44));
#42=SURFACE_SIDE_STYLE('',(#45));
#43=SURFACE_STYLE_FILL_AREA(#46);
#44=SURFACE_STYLE_FILL_AREA(#47);
#45=SURFACE_STYLE_FILL_AREA(#48);
#46=FILL_AREA_STYLE('',(#49));
#47=FILL_AREA_STYLE('',(#50));
#48=FILL_AREA_STYLE('',(#51));
#49=FILL_AREA_STYLE_COLOUR('',#339);
#50=FILL_AREA_STYLE_COLOUR('',#340);
#51=FILL_AREA_STYLE_COLOUR('',#340);
#52=MANIFOLD_SOLID_BREP('',#55);
#53=MANIFOLD_SOLID_BREP('',#56);
#54=MANIFOLD_SOLID_BREP('',#57);
#55=CLOSED_SHELL('',(#73,#74,#75,#76));
#56=CLOSED_SHELL('',(#77,#78,#79));
#57=CLOSED_SHELL('',(#80,#81,#82,#83));
#58=CONICAL_SURFACE('',#353,1.3,45.);
#59=CONICAL_SURFACE('',#357,1.5,68.5000000000003);
#60=CONICAL_SURFACE('',#363,1.5,68.5000000000003);
#61=PLANE('',#350);
#62=PLANE('',#352);
#63=PLANE('',#358);
#64=PLANE('',#360);
#65=PLANE('',#364);
#66=FACE_OUTER_BOUND('',#97,.T.);
#67=FACE_OUTER_BOUND('',#98,.T.);
#68=FACE_OUTER_BOUND('',#104,.T.);
#69=FACE_OUTER_BOUND('',#105,.T.);
#70=FACE_OUTER_BOUND('',#106,.T.);
#71=FACE_OUTER_BOUND('',#107,.T.);
#72=FACE_OUTER_BOUND('',#108,.T.);
#73=ADVANCED_FACE('',(#87,#88),#84,.T.);
#74=ADVANCED_FACE('',(#66),#61,.F.);
#75=ADVANCED_FACE('',(#67),#62,.F.);
#76=ADVANCED_FACE('',(#89,#90),#58,.T.);
#77=ADVANCED_FACE('',(#91,#92),#85,.T.);
#78=ADVANCED_FACE('',(#93,#94),#59,.T.);
#79=ADVANCED_FACE('',(#68),#63,.F.);
#80=ADVANCED_FACE('',(#69),#64,.F.);
#81=ADVANCED_FACE('',(#70),#86,.T.);
#82=ADVANCED_FACE('',(#71),#60,.T.);
#83=ADVANCED_FACE('',(#72),#65,.T.);
#84=CYLINDRICAL_SURFACE('',#349,1.5);
#85=CYLINDRICAL_SURFACE('',#356,1.5);
#86=CYLINDRICAL_SURFACE('',#362,1.5);
#87=FACE_BOUND('',#95,.T.);
#88=FACE_BOUND('',#96,.T.);
#89=FACE_BOUND('',#99,.T.);
#90=FACE_BOUND('',#100,.T.);
#91=FACE_BOUND('',#101,.T.);
#92=FACE_BOUND('',#102,.T.);
#93=FACE_BOUND('',#36,.T.);
#94=FACE_BOUND('',#103,.T.);
#95=EDGE_LOOP('',(#109));
#96=EDGE_LOOP('',(#110));
#97=EDGE_LOOP('',(#111));
#98=EDGE_LOOP('',(#112));
#99=EDGE_LOOP('',(#113));
#100=EDGE_LOOP('',(#114));
#101=EDGE_LOOP('',(#115));
#102=EDGE_LOOP('',(#116));
#103=EDGE_LOOP('',(#117));
#104=EDGE_LOOP('',(#118));
#105=EDGE_LOOP('',(#119,#120));
#106=EDGE_LOOP('',(#121,#122,#123,#124));
#107=EDGE_LOOP('',(#125,#126,#127));
#108=EDGE_LOOP('',(#128,#129,#130,#131,#132));
#109=ORIENTED_EDGE('',*,*,#144,.F.);
#110=ORIENTED_EDGE('',*,*,#145,.T.);
#111=ORIENTED_EDGE('',*,*,#144,.T.);
#112=ORIENTED_EDGE('',*,*,#146,.F.);
#113=ORIENTED_EDGE('',*,*,#145,.F.);
#114=ORIENTED_EDGE('',*,*,#146,.T.);
#115=ORIENTED_EDGE('',*,*,#147,.F.);
#116=ORIENTED_EDGE('',*,*,#148,.T.);
#117=ORIENTED_EDGE('',*,*,#147,.T.);
#118=ORIENTED_EDGE('',*,*,#148,.F.);
#119=ORIENTED_EDGE('',*,*,#149,.F.);
#120=ORIENTED_EDGE('',*,*,#150,.F.);
#121=ORIENTED_EDGE('',*,*,#151,.F.);
#122=ORIENTED_EDGE('',*,*,#152,.F.);
#123=ORIENTED_EDGE('',*,*,#149,.T.);
#124=ORIENTED_EDGE('',*,*,#153,.F.);
#125=ORIENTED_EDGE('',*,*,#154,.F.);
#126=ORIENTED_EDGE('',*,*,#151,.T.);
#127=ORIENTED_EDGE('',*,*,#155,.F.);
#128=ORIENTED_EDGE('',*,*,#154,.T.);
#129=ORIENTED_EDGE('',*,*,#155,.T.);
#130=ORIENTED_EDGE('',*,*,#153,.T.);
#131=ORIENTED_EDGE('',*,*,#150,.T.);
#132=ORIENTED_EDGE('',*,*,#152,.T.);
#133=VERTEX_POINT('',#462);
#134=VERTEX_POINT('',#464);
#135=VERTEX_POINT('',#468);
#136=VERTEX_POINT('',#472);
#137=VERTEX_POINT('',#474);
#138=VERTEX_POINT('',#476);
#139=VERTEX_POINT('',#480);
#140=VERTEX_POINT('',#481);
#141=VERTEX_POINT('',#485);
#142=VERTEX_POINT('',#486);
#143=VERTEX_POINT('',#491);
#144=EDGE_CURVE('',#133,#133,#157,.T.);
#145=EDGE_CURVE('',#134,#134,#158,.T.);
#146=EDGE_CURVE('',#135,#135,#159,.T.);
#147=EDGE_CURVE('',#136,#136,#160,.T.);
#148=EDGE_CURVE('',#137,#137,#161,.T.);
#149=EDGE_CURVE('',#139,#140,#162,.T.);
#150=EDGE_CURVE('',#140,#139,#239,.T.);
#151=EDGE_CURVE('',#141,#142,#163,.T.);
#152=EDGE_CURVE('',#139,#141,#240,.T.);
#153=EDGE_CURVE('',#142,#140,#241,.T.);
#154=EDGE_CURVE('',#141,#143,#242,.T.);
#155=EDGE_CURVE('',#143,#142,#243,.T.);
#156=CIRCLE('Arc29',#342,0.);
#157=CIRCLE('',#347,1.5);
#158=CIRCLE('',#348,1.5);
#159=CIRCLE('',#351,1.3);
#160=CIRCLE('',#354,1.5);
#161=CIRCLE('',#355,1.5);
#162=CIRCLE('',#359,1.5);
#163=CIRCLE('',#361,1.5);
#164=CURVE_STYLE('',#185,POSITIVE_LENGTH_MEASURE(0.18),#266);
#165=CURVE_STYLE('',#186,POSITIVE_LENGTH_MEASURE(0.18),#266);
#166=CURVE_STYLE('',#187,POSITIVE_LENGTH_MEASURE(0.18),#266);
#167=CURVE_STYLE('',#188,POSITIVE_LENGTH_MEASURE(0.18),#266);
#168=CURVE_STYLE('',#189,POSITIVE_LENGTH_MEASURE(0.18),#266);
#169=CURVE_STYLE('',#190,POSITIVE_LENGTH_MEASURE(0.18),#266);
#170=CURVE_STYLE('',#191,POSITIVE_LENGTH_MEASURE(0.18),#266);
#171=CURVE_STYLE('',#192,POSITIVE_LENGTH_MEASURE(0.18),#266);
#172=CURVE_STYLE('',#193,POSITIVE_LENGTH_MEASURE(0.18),#266);
#173=CURVE_STYLE('',#194,POSITIVE_LENGTH_MEASURE(0.18),#266);
#174=CURVE_STYLE('',#195,POSITIVE_LENGTH_MEASURE(0.18),#266);
#175=CURVE_STYLE('',#196,POSITIVE_LENGTH_MEASURE(0.18),#266);
#176=CURVE_STYLE('',#197,POSITIVE_LENGTH_MEASURE(0.18),#265);
#177=CURVE_STYLE('',#198,POSITIVE_LENGTH_MEASURE(0.18),#265);
#178=CURVE_STYLE('',#199,POSITIVE_LENGTH_MEASURE(0.18),#265);
#179=CURVE_STYLE('',#200,POSITIVE_LENGTH_MEASURE(0.18),#265);
#180=CURVE_STYLE('',#201,POSITIVE_LENGTH_MEASURE(0.18),#266);
#181=CURVE_STYLE('',#202,POSITIVE_LENGTH_MEASURE(0.18),#338);
#182=CURVE_STYLE('',#203,POSITIVE_LENGTH_MEASURE(0.18),#338);
#183=CURVE_STYLE('',#204,POSITIVE_LENGTH_MEASURE(0.18),#338);
#184=CURVE_STYLE('',#205,POSITIVE_LENGTH_MEASURE(0.18),#338);
#185=DRAUGHTING_PRE_DEFINED_CURVE_FONT('chain double dash');
#186=DRAUGHTING_PRE_DEFINED_CURVE_FONT('continuous');
#187=DRAUGHTING_PRE_DEFINED_CURVE_FONT('continuous');
#188=DRAUGHTING_PRE_DEFINED_CURVE_FONT('continuous');
#189=DRAUGHTING_PRE_DEFINED_CURVE_FONT('continuous');
#190=DRAUGHTING_PRE_DEFINED_CURVE_FONT('continuous');
#191=DRAUGHTING_PRE_DEFINED_CURVE_FONT('continuous');
#192=DRAUGHTING_PRE_DEFINED_CURVE_FONT('continuous');
#193=DRAUGHTING_PRE_DEFINED_CURVE_FONT('continuous');
#194=DRAUGHTING_PRE_DEFINED_CURVE_FONT('continuous');
#195=DRAUGHTING_PRE_DEFINED_CURVE_FONT('continuous');
#196=DRAUGHTING_PRE_DEFINED_CURVE_FONT('continuous');
#197=DRAUGHTING_PRE_DEFINED_CURVE_FONT('continuous');
#198=DRAUGHTING_PRE_DEFINED_CURVE_FONT('continuous');
#199=DRAUGHTING_PRE_DEFINED_CURVE_FONT('continuous');
#200=DRAUGHTING_PRE_DEFINED_CURVE_FONT('continuous');
#201=DRAUGHTING_PRE_DEFINED_CURVE_FONT('continuous');
#202=DRAUGHTING_PRE_DEFINED_CURVE_FONT('continuous');
#203=DRAUGHTING_PRE_DEFINED_CURVE_FONT('continuous');
#204=DRAUGHTING_PRE_DEFINED_CURVE_FONT('continuous');
#205=DRAUGHTING_PRE_DEFINED_CURVE_FONT('continuous');
#206=TRIMMED_CURVE('Line67',#223,(PARAMETER_VALUE(0.)),(
PARAMETER_VALUE(1.)),.T.,.PARAMETER.);
#207=TRIMMED_CURVE('Line68',#224,(PARAMETER_VALUE(0.)),(
PARAMETER_VALUE(1.)),.T.,.PARAMETER.);
#208=TRIMMED_CURVE('Line69',#225,(PARAMETER_VALUE(0.)),(
PARAMETER_VALUE(1.)),.T.,.PARAMETER.);
#209=TRIMMED_CURVE('Line70',#226,(PARAMETER_VALUE(0.)),(
PARAMETER_VALUE(1.)),.T.,.PARAMETER.);
#210=TRIMMED_CURVE('Line72',#227,(PARAMETER_VALUE(0.)),(
PARAMETER_VALUE(1.)),.T.,.PARAMETER.);
#211=TRIMMED_CURVE('Line73',#228,(PARAMETER_VALUE(0.)),(
PARAMETER_VALUE(1.)),.T.,.PARAMETER.);
#212=TRIMMED_CURVE('Line74',#229,(PARAMETER_VALUE(0.)),(
PARAMETER_VALUE(1.)),.T.,.PARAMETER.);
#213=TRIMMED_CURVE('Line75',#230,(PARAMETER_VALUE(0.)),(
PARAMETER_VALUE(1.)),.T.,.PARAMETER.);
#214=TRIMMED_CURVE('Line76',#231,(PARAMETER_VALUE(0.)),(
PARAMETER_VALUE(1.)),.T.,.PARAMETER.);
#215=TRIMMED_CURVE('Line77',#232,(PARAMETER_VALUE(0.)),(
PARAMETER_VALUE(1.)),.T.,.PARAMETER.);
#216=TRIMMED_CURVE('Line78',#233,(PARAMETER_VALUE(0.)),(
PARAMETER_VALUE(1.)),.T.,.PARAMETER.);
#217=TRIMMED_CURVE('Line79',#234,(PARAMETER_VALUE(0.)),(
PARAMETER_VALUE(1.)),.T.,.PARAMETER.);
#218=TRIMMED_CURVE('',#235,(PARAMETER_VALUE(0.)),(PARAMETER_VALUE(1.)),
 .T.,.PARAMETER.);
#219=TRIMMED_CURVE('',#236,(PARAMETER_VALUE(0.)),(PARAMETER_VALUE(1.)),
 .T.,.PARAMETER.);
#220=TRIMMED_CURVE('',#237,(PARAMETER_VALUE(0.)),(PARAMETER_VALUE(1.)),
 .T.,.PARAMETER.);
#221=TRIMMED_CURVE('',#238,(PARAMETER_VALUE(0.)),(PARAMETER_VALUE(1.)),
 .T.,.PARAMETER.);
#222=TRIMMED_CURVE('Arc29',#156,(PARAMETER_VALUE(0.)),(
PARAMETER_VALUE(0.)),.T.,.PARAMETER.);
#223=LINE('Line67',#440,#244);
#224=LINE('Line68',#441,#245);
#225=LINE('Line69',#442,#246);
#226=LINE('Line70',#443,#247);
#227=LINE('Line72',#444,#248);
#228=LINE('Line73',#445,#249);
#229=LINE('Line74',#446,#250);
#230=LINE('Line75',#447,#251);
#231=LINE('Line76',#448,#252);
#232=LINE('Line77',#449,#253);
#233=LINE('Line78',#450,#254);
#234=LINE('Line79',#451,#255);
#235=LINE('',#452,#256);
#236=LINE('',#453,#257);
#237=LINE('',#454,#258);
#238=LINE('',#455,#259);
#239=LINE('',#482,#260);
#240=LINE('',#487,#261);
#241=LINE('',#488,#262);
#242=LINE('',#490,#263);
#243=LINE('',#492,#264);
#244=VECTOR('',#367,34.);
#245=VECTOR('',#368,48.);
#246=VECTOR('',#369,1.61217936077168);
#247=VECTOR('',#370,47.4091342865776);
#248=VECTOR('',#371,1.5);
#249=VECTOR('',#372,4.40000000000001);
#250=VECTOR('',#373,1.5);
#251=VECTOR('',#374,34.);
#252=VECTOR('',#375,1.3);
#253=VECTOR('',#376,0.282842712474618);
#254=VECTOR('',#377,29.4);
#255=VECTOR('',#378,1.13742335326934E-14);
#256=VECTOR('',#379,1.5);
#257=VECTOR('',#380,47.4091342865776);
#258=VECTOR('',#381,1.61217936077167);
#259=VECTOR('',#382,48.);
#260=VECTOR('',#419,1.);
#261=VECTOR('',#424,1.);
#262=VECTOR('',#425,1.);
#263=VECTOR('',#428,1.);
#264=VECTOR('',#429,1.);
#265=DRAUGHTING_PRE_DEFINED_COLOUR('blue');
#266=DRAUGHTING_PRE_DEFINED_COLOUR('white');
#267=PRESENTATION_LAYER_ASSIGNMENT('12','Layer 12',(#435,#343));
#268=PRESENTATION_LAYER_ASSIGNMENT('1','Layer 1',(#436,#437,#438,#439,#218,
#219,#220,#221,#344,#345,#346,#52,#53));
#269=PRESENTATION_LAYER_ASSIGNMENT('22','Layer 22',(#206,#207,#208,#209,
#210,#211,#212,#213,#214,#215,#216,#217,#222,#54));
#270=STYLED_ITEM('',(#299),#435);
#271=STYLED_ITEM('',(#300),#436);
#272=STYLED_ITEM('',(#301),#437);
#273=STYLED_ITEM('',(#302),#438);
#274=STYLED_ITEM('',(#303),#439);
#275=STYLED_ITEM('',(#304),#206);
#276=STYLED_ITEM('',(#305),#207);
#277=STYLED_ITEM('',(#306),#208);
#278=STYLED_ITEM('',(#307),#209);
#279=STYLED_ITEM('',(#308),#210);
#280=STYLED_ITEM('',(#309),#211);
#281=STYLED_ITEM('',(#310),#212);
#282=STYLED_ITEM('',(#311),#213);
#283=STYLED_ITEM('',(#312),#214);
#284=STYLED_ITEM('',(#313),#215);
#285=STYLED_ITEM('',(#314),#216);
#286=STYLED_ITEM('',(#315),#217);
#287=STYLED_ITEM('',(#316),#218);
#288=STYLED_ITEM('',(#317),#219);
#289=STYLED_ITEM('',(#318),#220);
#290=STYLED_ITEM('',(#319),#221);
#291=STYLED_ITEM('',(#320),#222);
#292=STYLED_ITEM('',(#321),#343);
#293=STYLED_ITEM('',(#322),#344);
#294=STYLED_ITEM('',(#323),#345);
#295=STYLED_ITEM('',(#324),#346);
#296=STYLED_ITEM('',(#325),#52);
#297=STYLED_ITEM('',(#326),#53);
#298=STYLED_ITEM('',(#327),#54);
#299=PRESENTATION_STYLE_ASSIGNMENT((#328));
#300=PRESENTATION_STYLE_ASSIGNMENT((#329));
#301=PRESENTATION_STYLE_ASSIGNMENT((#330));
#302=PRESENTATION_STYLE_ASSIGNMENT((#331));
#303=PRESENTATION_STYLE_ASSIGNMENT((#332));
#304=PRESENTATION_STYLE_ASSIGNMENT((#164));
#305=PRESENTATION_STYLE_ASSIGNMENT((#165));
#306=PRESENTATION_STYLE_ASSIGNMENT((#166));
#307=PRESENTATION_STYLE_ASSIGNMENT((#167));
#308=PRESENTATION_STYLE_ASSIGNMENT((#168));
#309=PRESENTATION_STYLE_ASSIGNMENT((#169));
#310=PRESENTATION_STYLE_ASSIGNMENT((#170));
#311=PRESENTATION_STYLE_ASSIGNMENT((#171));
#312=PRESENTATION_STYLE_ASSIGNMENT((#172));
#313=PRESENTATION_STYLE_ASSIGNMENT((#173));
#314=PRESENTATION_STYLE_ASSIGNMENT((#174));
#315=PRESENTATION_STYLE_ASSIGNMENT((#175));
#316=PRESENTATION_STYLE_ASSIGNMENT((#176));
#317=PRESENTATION_STYLE_ASSIGNMENT((#177));
#318=PRESENTATION_STYLE_ASSIGNMENT((#178));
#319=PRESENTATION_STYLE_ASSIGNMENT((#179));
#320=PRESENTATION_STYLE_ASSIGNMENT((#180));
#321=PRESENTATION_STYLE_ASSIGNMENT((#181));
#322=PRESENTATION_STYLE_ASSIGNMENT((#182));
#323=PRESENTATION_STYLE_ASSIGNMENT((#183));
#324=PRESENTATION_STYLE_ASSIGNMENT((#184));
#325=PRESENTATION_STYLE_ASSIGNMENT((#37));
#326=PRESENTATION_STYLE_ASSIGNMENT((#38));
#327=PRESENTATION_STYLE_ASSIGNMENT((#39));
#328=POINT_STYLE('',#333,POSITIVE_LENGTH_MEASURE(3.),#338);
#329=POINT_STYLE('',#334,POSITIVE_LENGTH_MEASURE(3.),#265);
#330=POINT_STYLE('',#335,POSITIVE_LENGTH_MEASURE(3.),#338);
#331=POINT_STYLE('',#336,POSITIVE_LENGTH_MEASURE(3.),#338);
#332=POINT_STYLE('',#337,POSITIVE_LENGTH_MEASURE(3.),#338);
#333=PRE_DEFINED_POINT_MARKER_SYMBOL('plus');
#334=PRE_DEFINED_POINT_MARKER_SYMBOL('plus');
#335=PRE_DEFINED_POINT_MARKER_SYMBOL('plus');
#336=PRE_DEFINED_POINT_MARKER_SYMBOL('plus');
#337=PRE_DEFINED_POINT_MARKER_SYMBOL('plus');
#338=COLOUR_RGB('Medium Maroon',0.6,0.4,0.4);
#339=COLOUR_RGB('Gray',0.501960784313725,0.501960784313725,0.501960784313725);
#340=COLOUR_RGB('Light Gray',0.8,0.8,0.8);
#341=AXIS2_PLACEMENT_3D('',#434,#365,#366);
#342=AXIS2_PLACEMENT_3D('',#456,#383,#384);
#343=AXIS2_PLACEMENT_3D('',#457,#385,#386);
#344=AXIS2_PLACEMENT_3D('PCS',#458,#387,#388);
#345=AXIS2_PLACEMENT_3D('MCS',#459,#389,#390);
#346=AXIS2_PLACEMENT_3D('CIP',#460,#391,#392);
#347=AXIS2_PLACEMENT_3D('',#461,#393,#394);
#348=AXIS2_PLACEMENT_3D('',#463,#395,#396);
#349=AXIS2_PLACEMENT_3D('',#465,#397,#398);
#350=AXIS2_PLACEMENT_3D('',#466,#399,#400);
#351=AXIS2_PLACEMENT_3D('',#467,#401,#402);
#352=AXIS2_PLACEMENT_3D('',#469,#403,#404);
#353=AXIS2_PLACEMENT_3D('',#470,#405,#406);
#354=AXIS2_PLACEMENT_3D('',#471,#407,#408);
#355=AXIS2_PLACEMENT_3D('',#473,#409,#410);
#356=AXIS2_PLACEMENT_3D('',#475,#411,#412);
#357=AXIS2_PLACEMENT_3D('',#477,#413,#414);
#358=AXIS2_PLACEMENT_3D('',#478,#415,#416);
#359=AXIS2_PLACEMENT_3D('',#479,#417,#418);
#360=AXIS2_PLACEMENT_3D('',#483,#420,#421);
#361=AXIS2_PLACEMENT_3D('',#484,#422,#423);
#362=AXIS2_PLACEMENT_3D('',#489,#426,#427);
#363=AXIS2_PLACEMENT_3D('',#493,#430,#431);
#364=AXIS2_PLACEMENT_3D('',#494,#432,#433);
#365=DIRECTION('',(0.,0.,1.));
#366=DIRECTION('',(1.,0.,0.));
#367=DIRECTION('',(-2.1121614123268E-16,0.,-1.));
#368=DIRECTION('',(-1.22464679914735E-16,0.,-1.));
#369=DIRECTION('',(0.930417567982027,0.,0.36650122672429));
#370=DIRECTION('',(4.6835827792767E-18,0.,1.));
#371=DIRECTION('',(-1.,0.,0.));
#372=DIRECTION('',(0.,0.,1.));
#373=DIRECTION('',(-1.,0.,0.));
#374=DIRECTION('',(0.,0.,1.));
#375=DIRECTION('',(1.,0.,0.));
#376=DIRECTION('',(0.707106781186548,0.,-0.707106781186548));
#377=DIRECTION('',(-1.20840601319745E-16,0.,-1.));
#378=DIRECTION('',(0.78086880944303,0.,0.624695047554424));
#379=DIRECTION('',(1.,0.,0.));
#380=DIRECTION('',(0.,0.,-1.));
#381=DIRECTION('',(-0.930417567982026,0.,-0.366501226724294));
#382=DIRECTION('',(0.,0.,-1.));
#383=DIRECTION('',(0.,1.,0.));
#384=DIRECTION('',(0.,0.,1.));
#385=DIRECTION('',(0.,0.,1.));
#386=DIRECTION('',(1.,0.,0.));
#387=DIRECTION('',(0.,0.,1.));
#388=DIRECTION('',(1.,0.,0.));
#389=DIRECTION('',(0.,0.,1.));
#390=DIRECTION('',(1.,0.,0.));
#391=DIRECTION('',(0.,0.,1.));
#392=DIRECTION('',(1.,0.,0.));
#393=DIRECTION('',(0.,0.,-1.));
#394=DIRECTION('',(-1.,0.,0.));
#395=DIRECTION('',(0.,0.,-1.));
#396=DIRECTION('',(-1.,0.,0.));
#397=DIRECTION('',(0.,0.,-1.));
#398=DIRECTION('',(-1.,0.,0.));
#399=DIRECTION('',(0.,0.,1.));
#400=DIRECTION('',(1.,0.,0.));
#401=DIRECTION('',(0.,0.,-1.));
#402=DIRECTION('',(-1.,0.,0.));
#403=DIRECTION('',(0.,0.,-1.));
#404=DIRECTION('',(-1.,0.,0.));
#405=DIRECTION('',(0.,0.,-1.));
#406=DIRECTION('',(-1.,0.,0.));
#407=DIRECTION('',(0.,0.,-1.));
#408=DIRECTION('',(-1.,0.,0.));
#409=DIRECTION('',(0.,0.,-1.));
#410=DIRECTION('',(-1.,0.,0.));
#411=DIRECTION('',(0.,0.,-1.));
#412=DIRECTION('',(-1.,0.,0.));
#413=DIRECTION('',(0.,0.,1.));
#414=DIRECTION('',(1.,0.,5.46337787319462E-18));
#415=DIRECTION('',(0.,0.,-1.));
#416=DIRECTION('',(-1.,0.,0.));
#417=DIRECTION('',(0.,0.,-1.));
#418=DIRECTION('',(-1.,0.,0.));
#419=DIRECTION('',(1.17145536458252E-15,1.,0.));
#420=DIRECTION('',(0.,0.,-1.));
#421=DIRECTION('',(-1.,0.,0.));
#422=DIRECTION('',(0.,0.,-1.));
#423=DIRECTION('',(-1.,0.,0.));
#424=DIRECTION('',(-5.35801579321291E-33,-4.5738113078874E-18,-1.));
#425=DIRECTION('',(5.35801579321291E-33,-4.5738113078874E-18,1.));
#426=DIRECTION('',(0.,0.,-1.));
#427=DIRECTION('',(-1.,0.,0.));
#428=DIRECTION('',(-1.08994265131437E-15,-0.930417567982028,-0.366501226724289));
#429=DIRECTION('',(1.08994265131437E-15,-0.930417567982028,0.366501226724289));
#430=DIRECTION('',(0.,0.,1.));
#431=DIRECTION('',(1.,0.,5.46337787319462E-18));
#432=DIRECTION('',(-1.,1.17145536458252E-15,0.));
#433=DIRECTION('',(0.,0.,1.));
#434=CARTESIAN_POINT('',(0.,0.,0.));
#435=CARTESIAN_POINT('',(0.,0.,0.));
#436=CARTESIAN_POINT('',(1.5,0.,-81.4091342865776));
#437=CARTESIAN_POINT('',(0.,0.,0.));
#438=CARTESIAN_POINT('',(0.,0.,-29.6));
#439=CARTESIAN_POINT('',(0.,0.,-82.));
#440=CARTESIAN_POINT('',(5.32907051820075E-15,0.,0.));
#441=CARTESIAN_POINT('',(-1.85227828371037E-15,0.,-34.));
#442=CARTESIAN_POINT('',(-7.73058291961767E-15,0.,-82.));
#443=CARTESIAN_POINT('',(1.5,0.,-81.4091342865776));
#444=CARTESIAN_POINT('',(1.5,0.,-34.));
#445=CARTESIAN_POINT('',(1.5,0.,-34.));
#446=CARTESIAN_POINT('',(1.5,0.,-34.));
#447=CARTESIAN_POINT('',(0.,0.,-34.));
#448=CARTESIAN_POINT('',(0.,0.,0.));
#449=CARTESIAN_POINT('',(1.3,0.,0.));
#450=CARTESIAN_POINT('',(1.5,0.,-0.199999999999999));
#451=CARTESIAN_POINT('',(1.5,0.,-29.6));
#452=CARTESIAN_POINT('',(1.3684555315672E-45,0.,-34.));
#453=CARTESIAN_POINT('',(1.5,0.,-34.));
#454=CARTESIAN_POINT('',(1.49999999999999,0.,-81.4091342865776));
#455=CARTESIAN_POINT('',(0.,0.,-34.));
#456=CARTESIAN_POINT('',(1.5,0.,-29.6));
#457=CARTESIAN_POINT('',(0.,0.,0.));
#458=CARTESIAN_POINT('',(0.,0.,0.));
#459=CARTESIAN_POINT('',(0.,0.,-29.6));
#460=CARTESIAN_POINT('',(0.,0.,-82.));
#461=CARTESIAN_POINT('',(0.,0.,-34.));
#462=CARTESIAN_POINT('',(-1.5,0.,-34.));
#463=CARTESIAN_POINT('',(0.,0.,-0.199999999999999));
#464=CARTESIAN_POINT('',(-1.5,0.,-0.199999999999999));
#465=CARTESIAN_POINT('',(0.,0.,0.));
#466=CARTESIAN_POINT('',(1.5,0.,-34.));
#467=CARTESIAN_POINT('',(0.,0.,0.));
#468=CARTESIAN_POINT('',(-1.3,0.,0.));
#469=CARTESIAN_POINT('',(0.,0.,0.));
#470=CARTESIAN_POINT('',(0.,0.,0.));
#471=CARTESIAN_POINT('',(0.,0.,-81.4091342865776));
#472=CARTESIAN_POINT('',(-1.5,0.,-81.4091342865776));
#473=CARTESIAN_POINT('',(0.,0.,-34.));
#474=CARTESIAN_POINT('',(-1.5,0.,-34.));
#475=CARTESIAN_POINT('',(0.,0.,0.));
#476=CARTESIAN_POINT('',(-8.02309607639273E-15,0.,-82.));
#477=CARTESIAN_POINT('',(0.,0.,-81.4091342865776));
#478=CARTESIAN_POINT('',(-1.77635683940025E-15,0.,-34.));
#479=CARTESIAN_POINT('',(0.,0.,-34.));
#480=CARTESIAN_POINT('',(1.75718304687378E-15,1.5,-34.));
#481=CARTESIAN_POINT('',(1.75718304687378E-15,-1.5,-34.));
#482=CARTESIAN_POINT('',(-2.08092274892828E-30,-1.77635683940025E-15,-34.));
#483=CARTESIAN_POINT('',(-2.08092274892828E-30,-1.77635683940025E-15,-34.));
#484=CARTESIAN_POINT('',(0.,0.,-81.4091342865776));
#485=CARTESIAN_POINT('',(1.75718304687378E-15,1.5,-81.4091342865776));
#486=CARTESIAN_POINT('',(1.75718304687378E-15,-1.5,-81.4091342865776));
#487=CARTESIAN_POINT('',(1.75718304687378E-15,1.5,-34.));
#488=CARTESIAN_POINT('',(1.75718304687378E-15,-1.5,-34.));
#489=CARTESIAN_POINT('',(0.,0.,0.));
#490=CARTESIAN_POINT('',(1.75718304687378E-15,1.5,-81.4091342865776));
#491=CARTESIAN_POINT('',(-9.05603283253615E-30,-7.73058291961767E-15,-82.));
#492=CARTESIAN_POINT('',(1.75718304687378E-15,-1.5,-81.4091342865776));
#493=CARTESIAN_POINT('',(0.,0.,-81.4091342865776));
#494=CARTESIAN_POINT('',(0.,0.,0.));
#495=MECHANICAL_DESIGN_GEOMETRIC_PRESENTATION_REPRESENTATION('',(#270,#271,
#272,#273,#274,#275,#276,#277,#278,#279,#280,#281,#282,#283,#284,#285,#286,
#287,#288,#289,#290,#291,#292,#293,#294,#295,#296,#297,#298),#496);
#496=(
GEOMETRIC_REPRESENTATION_CONTEXT(3)
GLOBAL_UNCERTAINTY_ASSIGNED_CONTEXT((#497))
GLOBAL_UNIT_ASSIGNED_CONTEXT((#503,#499,#498))
REPRESENTATION_CONTEXT('862','TOP_LEVEL_ASSEMBLY_PART')
);
#497=UNCERTAINTY_MEASURE_WITH_UNIT(LENGTH_MEASURE(2.E-5),#503,
'DISTANCE_ACCURACY_VALUE','Maximum Tolerance applied to model');
#498=(
NAMED_UNIT(*)
SI_UNIT($,.STERADIAN.)
SOLID_ANGLE_UNIT()
);
#499=(
CONVERSION_BASED_UNIT('DEGREE',#501)
NAMED_UNIT(#500)
PLANE_ANGLE_UNIT()
);
#500=DIMENSIONAL_EXPONENTS(0.,0.,0.,0.,0.,0.,0.);
#501=PLANE_ANGLE_MEASURE_WITH_UNIT(PLANE_ANGLE_MEASURE(0.0174532925),#502);
#502=(
NAMED_UNIT(*)
PLANE_ANGLE_UNIT()
SI_UNIT($,.RADIAN.)
);
#503=(
LENGTH_UNIT()
NAMED_UNIT(*)
SI_UNIT(.MILLI.,.METRE.)
);
ENDSEC;
END-ISO-10303-21;
