ISO-10303-21;
HEADER;
/* Generated by software containing ST-Developer
 * from STEP Tools, Inc. (www.steptools.com) 
 */
/* OPTION: using custom schema-name function */

FILE_DESCRIPTION(
/* description */ (''),
/* implementation_level */ '2;1');

FILE_NAME(
/* name */ '862.1-2500-300A1-GM_BAS.stp',
/* time_stamp */ '2021-09-08T12:13:15-06:00',
/* author */ (''),
/* organization */ (''),
/* preprocessor_version */ 'ST-DEVELOPER v16.7',
/* originating_system */ 'SIEMENS PLM Software NX 12.0',
/* authorisation */ '');

FILE_SCHEMA (('AUTOMOTIVE_DESIGN { 1 0 10303 214 3 1 1 1 }'));
ENDSEC;

DATA;
#10=CONSTRUCTIVE_GEOMETRY_REPRESENTATION_RELATIONSHIP(
'supplemental geometry','',#34,#11);
#11=CONSTRUCTIVE_GEOMETRY_REPRESENTATION('supplemental geometry',(#376,
#377,#378,#379),#556);
#12=GEOMETRICALLY_BOUNDED_WIREFRAME_SHAPE_REPRESENTATION(
'862.1-2500-300A1-GM_BAS-None',(#35),#556);
#13=PROPERTY_DEFINITION_REPRESENTATION(#17,#15);
#14=PROPERTY_DEFINITION_REPRESENTATION(#18,#16);
#15=REPRESENTATION('',(#19),#556);
#16=REPRESENTATION('',(#20),#556);
#17=PROPERTY_DEFINITION('pmi validation property','',#25);
#18=PROPERTY_DEFINITION('pmi validation property','',#25);
#19=VALUE_REPRESENTATION_ITEM('number of annotations',COUNT_MEASURE(0.));
#20=VALUE_REPRESENTATION_ITEM('number of views',COUNT_MEASURE(0.));
#21=SHAPE_REPRESENTATION_RELATIONSHIP('None',
'relationship between 862.1-2500-300A1-GM_BAS-None and 862.1-2500-300A
1-GM_BAS-None',#34,#23);
#22=SHAPE_REPRESENTATION_RELATIONSHIP('None',
'relationship between 862.1-2500-300A1-GM_BAS-None and 862.1-2500-300A
1-GM_BAS-None',#34,#12);
#23=ADVANCED_BREP_SHAPE_REPRESENTATION('862.1-2500-300A1-GM_BAS-None',(#52,
#53,#54),#556);
#24=SHAPE_DEFINITION_REPRESENTATION(#25,#34);
#25=PRODUCT_DEFINITION_SHAPE('','',#26);
#26=PRODUCT_DEFINITION(' ','',#28,#27);
#27=PRODUCT_DEFINITION_CONTEXT('part definition',#33,'design');
#28=PRODUCT_DEFINITION_FORMATION_WITH_SPECIFIED_SOURCE(' ',' ',#30,
 .NOT_KNOWN.);
#29=PRODUCT_RELATED_PRODUCT_CATEGORY('part','',(#30));
#30=PRODUCT('862.1-2500-300A1-GM_BAS','862.1-2500-300A1-GM_BAS',' ',(#31));
#31=PRODUCT_CONTEXT(' ',#33,'mechanical');
#32=APPLICATION_PROTOCOL_DEFINITION('international standard',
'automotive_design',2010,#33);
#33=APPLICATION_CONTEXT(
'core data for automotive mechanical design processes');
#34=SHAPE_REPRESENTATION('862.1-2500-300A1-GM_BAS-None',(#374),#556);
#35=GEOMETRIC_CURVE_SET('None',(#486,#487,#488,#489,#490,#239,#240,#241,
#242,#243,#244,#245,#246,#247,#248,#249,#250,#251,#252,#253,#254,#255));
#36=VERTEX_LOOP('',#165);
#37=SURFACE_STYLE_USAGE(.BOTH.,#40);
#38=SURFACE_STYLE_USAGE(.BOTH.,#41);
#39=SURFACE_STYLE_USAGE(.BOTH.,#42);
#40=SURFACE_SIDE_STYLE('',(#43));
#41=SURFACE_SIDE_STYLE('',(#44));
#42=SURFACE_SIDE_STYLE('',(#45));
#43=SURFACE_STYLE_FILL_AREA(#46);
#44=SURFACE_STYLE_FILL_AREA(#47);
#45=SURFACE_STYLE_FILL_AREA(#48);
#46=FILL_AREA_STYLE('',(#49));
#47=FILL_AREA_STYLE('',(#50));
#48=FILL_AREA_STYLE('',(#51));
#49=FILL_AREA_STYLE_COLOUR('',#372);
#50=FILL_AREA_STYLE_COLOUR('',#373);
#51=FILL_AREA_STYLE_COLOUR('',#373);
#52=MANIFOLD_SOLID_BREP('',#55);
#53=MANIFOLD_SOLID_BREP('',#56);
#54=MANIFOLD_SOLID_BREP('',#57);
#55=CLOSED_SHELL('',(#75,#76,#77,#78,#79,#80,#81));
#56=CLOSED_SHELL('',(#82,#83,#84));
#57=CLOSED_SHELL('',(#85,#86,#87,#88));
#58=PLANE('',#389);
#59=PLANE('',#391);
#60=PLANE('',#397);
#61=PLANE('',#399);
#62=PLANE('',#403);
#63=FACE_OUTER_BOUND('',#115,.T.);
#64=FACE_OUTER_BOUND('',#116,.T.);
#65=FACE_OUTER_BOUND('',#122,.T.);
#66=FACE_OUTER_BOUND('',#123,.T.);
#67=FACE_OUTER_BOUND('',#124,.T.);
#68=FACE_OUTER_BOUND('',#125,.T.);
#69=FACE_OUTER_BOUND('',#126,.T.);
#70=TOROIDAL_SURFACE('',#386,2.75,1.5);
#71=CONICAL_SURFACE('',#384,1.5,29.9999999999999);
#72=CONICAL_SURFACE('',#392,1.3,45.);
#73=CONICAL_SURFACE('',#396,1.25,68.4999999999995);
#74=CONICAL_SURFACE('',#402,1.25,68.4999999999995);
#75=ADVANCED_FACE('',(#93,#94),#89,.T.);
#76=ADVANCED_FACE('',(#95,#96),#71,.T.);
#77=ADVANCED_FACE('',(#97,#98),#70,.F.);
#78=ADVANCED_FACE('',(#99,#100),#90,.T.);
#79=ADVANCED_FACE('',(#63),#58,.F.);
#80=ADVANCED_FACE('',(#64),#59,.F.);
#81=ADVANCED_FACE('',(#101,#102),#72,.T.);
#82=ADVANCED_FACE('',(#103,#104),#91,.T.);
#83=ADVANCED_FACE('',(#105,#106),#73,.T.);
#84=ADVANCED_FACE('',(#65),#60,.F.);
#85=ADVANCED_FACE('',(#66),#61,.F.);
#86=ADVANCED_FACE('',(#67),#92,.T.);
#87=ADVANCED_FACE('',(#68),#74,.T.);
#88=ADVANCED_FACE('',(#69),#62,.T.);
#89=CYLINDRICAL_SURFACE('',#382,1.5);
#90=CYLINDRICAL_SURFACE('',#388,1.25);
#91=CYLINDRICAL_SURFACE('',#395,1.25);
#92=CYLINDRICAL_SURFACE('',#401,1.25);
#93=FACE_BOUND('',#107,.T.);
#94=FACE_BOUND('',#108,.T.);
#95=FACE_BOUND('',#109,.T.);
#96=FACE_BOUND('',#110,.T.);
#97=FACE_BOUND('',#111,.T.);
#98=FACE_BOUND('',#112,.T.);
#99=FACE_BOUND('',#113,.T.);
#100=FACE_BOUND('',#114,.T.);
#101=FACE_BOUND('',#117,.T.);
#102=FACE_BOUND('',#118,.T.);
#103=FACE_BOUND('',#119,.T.);
#104=FACE_BOUND('',#120,.T.);
#105=FACE_BOUND('',#36,.T.);
#106=FACE_BOUND('',#121,.T.);
#107=EDGE_LOOP('',(#127));
#108=EDGE_LOOP('',(#128));
#109=EDGE_LOOP('',(#129));
#110=EDGE_LOOP('',(#130));
#111=EDGE_LOOP('',(#131));
#112=EDGE_LOOP('',(#132));
#113=EDGE_LOOP('',(#133));
#114=EDGE_LOOP('',(#134));
#115=EDGE_LOOP('',(#135));
#116=EDGE_LOOP('',(#136));
#117=EDGE_LOOP('',(#137));
#118=EDGE_LOOP('',(#138));
#119=EDGE_LOOP('',(#139));
#120=EDGE_LOOP('',(#140));
#121=EDGE_LOOP('',(#141));
#122=EDGE_LOOP('',(#142));
#123=EDGE_LOOP('',(#143,#144));
#124=EDGE_LOOP('',(#145,#146,#147,#148));
#125=EDGE_LOOP('',(#149,#150,#151));
#126=EDGE_LOOP('',(#152,#153,#154,#155,#156));
#127=ORIENTED_EDGE('',*,*,#171,.F.);
#128=ORIENTED_EDGE('',*,*,#172,.T.);
#129=ORIENTED_EDGE('',*,*,#173,.F.);
#130=ORIENTED_EDGE('',*,*,#171,.T.);
#131=ORIENTED_EDGE('',*,*,#174,.F.);
#132=ORIENTED_EDGE('',*,*,#173,.T.);
#133=ORIENTED_EDGE('',*,*,#175,.F.);
#134=ORIENTED_EDGE('',*,*,#174,.T.);
#135=ORIENTED_EDGE('',*,*,#175,.T.);
#136=ORIENTED_EDGE('',*,*,#176,.F.);
#137=ORIENTED_EDGE('',*,*,#172,.F.);
#138=ORIENTED_EDGE('',*,*,#176,.T.);
#139=ORIENTED_EDGE('',*,*,#177,.F.);
#140=ORIENTED_EDGE('',*,*,#178,.T.);
#141=ORIENTED_EDGE('',*,*,#177,.T.);
#142=ORIENTED_EDGE('',*,*,#178,.F.);
#143=ORIENTED_EDGE('',*,*,#179,.F.);
#144=ORIENTED_EDGE('',*,*,#180,.F.);
#145=ORIENTED_EDGE('',*,*,#181,.F.);
#146=ORIENTED_EDGE('',*,*,#182,.F.);
#147=ORIENTED_EDGE('',*,*,#179,.T.);
#148=ORIENTED_EDGE('',*,*,#183,.F.);
#149=ORIENTED_EDGE('',*,*,#184,.F.);
#150=ORIENTED_EDGE('',*,*,#181,.T.);
#151=ORIENTED_EDGE('',*,*,#185,.F.);
#152=ORIENTED_EDGE('',*,*,#184,.T.);
#153=ORIENTED_EDGE('',*,*,#185,.T.);
#154=ORIENTED_EDGE('',*,*,#183,.T.);
#155=ORIENTED_EDGE('',*,*,#180,.T.);
#156=ORIENTED_EDGE('',*,*,#182,.T.);
#157=VERTEX_POINT('',#513);
#158=VERTEX_POINT('',#515);
#159=VERTEX_POINT('',#518);
#160=VERTEX_POINT('',#521);
#161=VERTEX_POINT('',#524);
#162=VERTEX_POINT('',#528);
#163=VERTEX_POINT('',#532);
#164=VERTEX_POINT('',#534);
#165=VERTEX_POINT('',#536);
#166=VERTEX_POINT('',#540);
#167=VERTEX_POINT('',#541);
#168=VERTEX_POINT('',#545);
#169=VERTEX_POINT('',#546);
#170=VERTEX_POINT('',#551);
#171=EDGE_CURVE('',#157,#157,#187,.T.);
#172=EDGE_CURVE('',#158,#158,#188,.T.);
#173=EDGE_CURVE('',#159,#159,#189,.T.);
#174=EDGE_CURVE('',#160,#160,#190,.T.);
#175=EDGE_CURVE('',#161,#161,#191,.T.);
#176=EDGE_CURVE('',#162,#162,#192,.T.);
#177=EDGE_CURVE('',#163,#163,#193,.T.);
#178=EDGE_CURVE('',#164,#164,#194,.T.);
#179=EDGE_CURVE('',#166,#167,#195,.T.);
#180=EDGE_CURVE('',#167,#166,#272,.T.);
#181=EDGE_CURVE('',#168,#169,#196,.T.);
#182=EDGE_CURVE('',#166,#168,#273,.T.);
#183=EDGE_CURVE('',#169,#167,#274,.T.);
#184=EDGE_CURVE('',#168,#170,#275,.T.);
#185=EDGE_CURVE('',#170,#169,#276,.T.);
#186=CIRCLE('Arc29',#375,1.5);
#187=CIRCLE('',#380,1.5);
#188=CIRCLE('',#381,1.5);
#189=CIRCLE('',#383,1.45096189432334);
#190=CIRCLE('',#385,1.25);
#191=CIRCLE('',#387,1.25);
#192=CIRCLE('',#390,1.3);
#193=CIRCLE('',#393,1.25);
#194=CIRCLE('',#394,1.25);
#195=CIRCLE('',#398,1.25);
#196=CIRCLE('',#400,1.25);
#197=CURVE_STYLE('',#218,POSITIVE_LENGTH_MEASURE(0.18),#299);
#198=CURVE_STYLE('',#219,POSITIVE_LENGTH_MEASURE(0.18),#299);
#199=CURVE_STYLE('',#220,POSITIVE_LENGTH_MEASURE(0.18),#299);
#200=CURVE_STYLE('',#221,POSITIVE_LENGTH_MEASURE(0.18),#299);
#201=CURVE_STYLE('',#222,POSITIVE_LENGTH_MEASURE(0.18),#299);
#202=CURVE_STYLE('',#223,POSITIVE_LENGTH_MEASURE(0.18),#299);
#203=CURVE_STYLE('',#224,POSITIVE_LENGTH_MEASURE(0.18),#299);
#204=CURVE_STYLE('',#225,POSITIVE_LENGTH_MEASURE(0.18),#299);
#205=CURVE_STYLE('',#226,POSITIVE_LENGTH_MEASURE(0.18),#299);
#206=CURVE_STYLE('',#227,POSITIVE_LENGTH_MEASURE(0.18),#299);
#207=CURVE_STYLE('',#228,POSITIVE_LENGTH_MEASURE(0.18),#299);
#208=CURVE_STYLE('',#229,POSITIVE_LENGTH_MEASURE(0.18),#299);
#209=CURVE_STYLE('',#230,POSITIVE_LENGTH_MEASURE(0.18),#298);
#210=CURVE_STYLE('',#231,POSITIVE_LENGTH_MEASURE(0.18),#298);
#211=CURVE_STYLE('',#232,POSITIVE_LENGTH_MEASURE(0.18),#298);
#212=CURVE_STYLE('',#233,POSITIVE_LENGTH_MEASURE(0.18),#298);
#213=CURVE_STYLE('',#234,POSITIVE_LENGTH_MEASURE(0.18),#299);
#214=CURVE_STYLE('',#235,POSITIVE_LENGTH_MEASURE(0.18),#371);
#215=CURVE_STYLE('',#236,POSITIVE_LENGTH_MEASURE(0.18),#371);
#216=CURVE_STYLE('',#237,POSITIVE_LENGTH_MEASURE(0.18),#371);
#217=CURVE_STYLE('',#238,POSITIVE_LENGTH_MEASURE(0.18),#371);
#218=DRAUGHTING_PRE_DEFINED_CURVE_FONT('chain double dash');
#219=DRAUGHTING_PRE_DEFINED_CURVE_FONT('continuous');
#220=DRAUGHTING_PRE_DEFINED_CURVE_FONT('continuous');
#221=DRAUGHTING_PRE_DEFINED_CURVE_FONT('continuous');
#222=DRAUGHTING_PRE_DEFINED_CURVE_FONT('continuous');
#223=DRAUGHTING_PRE_DEFINED_CURVE_FONT('continuous');
#224=DRAUGHTING_PRE_DEFINED_CURVE_FONT('continuous');
#225=DRAUGHTING_PRE_DEFINED_CURVE_FONT('continuous');
#226=DRAUGHTING_PRE_DEFINED_CURVE_FONT('continuous');
#227=DRAUGHTING_PRE_DEFINED_CURVE_FONT('continuous');
#228=DRAUGHTING_PRE_DEFINED_CURVE_FONT('continuous');
#229=DRAUGHTING_PRE_DEFINED_CURVE_FONT('continuous');
#230=DRAUGHTING_PRE_DEFINED_CURVE_FONT('continuous');
#231=DRAUGHTING_PRE_DEFINED_CURVE_FONT('continuous');
#232=DRAUGHTING_PRE_DEFINED_CURVE_FONT('continuous');
#233=DRAUGHTING_PRE_DEFINED_CURVE_FONT('continuous');
#234=DRAUGHTING_PRE_DEFINED_CURVE_FONT('continuous');
#235=DRAUGHTING_PRE_DEFINED_CURVE_FONT('continuous');
#236=DRAUGHTING_PRE_DEFINED_CURVE_FONT('continuous');
#237=DRAUGHTING_PRE_DEFINED_CURVE_FONT('continuous');
#238=DRAUGHTING_PRE_DEFINED_CURVE_FONT('continuous');
#239=TRIMMED_CURVE('Line67',#256,(PARAMETER_VALUE(0.)),(
PARAMETER_VALUE(1.)),.T.,.PARAMETER.);
#240=TRIMMED_CURVE('Line68',#257,(PARAMETER_VALUE(0.)),(
PARAMETER_VALUE(1.)),.T.,.PARAMETER.);
#241=TRIMMED_CURVE('Line69',#258,(PARAMETER_VALUE(0.)),(
PARAMETER_VALUE(1.)),.T.,.PARAMETER.);
#242=TRIMMED_CURVE('Line70',#259,(PARAMETER_VALUE(0.)),(
PARAMETER_VALUE(1.)),.T.,.PARAMETER.);
#243=TRIMMED_CURVE('Line72',#260,(PARAMETER_VALUE(0.)),(
PARAMETER_VALUE(1.)),.T.,.PARAMETER.);
#244=TRIMMED_CURVE('Line73',#261,(PARAMETER_VALUE(0.)),(
PARAMETER_VALUE(1.)),.T.,.PARAMETER.);
#245=TRIMMED_CURVE('Line74',#262,(PARAMETER_VALUE(0.)),(
PARAMETER_VALUE(1.)),.T.,.PARAMETER.);
#246=TRIMMED_CURVE('Line75',#263,(PARAMETER_VALUE(0.)),(
PARAMETER_VALUE(1.)),.T.,.PARAMETER.);
#247=TRIMMED_CURVE('Line76',#264,(PARAMETER_VALUE(0.)),(
PARAMETER_VALUE(1.)),.T.,.PARAMETER.);
#248=TRIMMED_CURVE('Line77',#265,(PARAMETER_VALUE(0.)),(
PARAMETER_VALUE(1.)),.T.,.PARAMETER.);
#249=TRIMMED_CURVE('Line78',#266,(PARAMETER_VALUE(0.)),(
PARAMETER_VALUE(1.)),.T.,.PARAMETER.);
#250=TRIMMED_CURVE('Line79',#267,(PARAMETER_VALUE(0.)),(
PARAMETER_VALUE(1.)),.T.,.PARAMETER.);
#251=TRIMMED_CURVE('',#268,(PARAMETER_VALUE(0.)),(PARAMETER_VALUE(1.)),
 .T.,.PARAMETER.);
#252=TRIMMED_CURVE('',#269,(PARAMETER_VALUE(0.)),(PARAMETER_VALUE(1.)),
 .T.,.PARAMETER.);
#253=TRIMMED_CURVE('',#270,(PARAMETER_VALUE(0.)),(PARAMETER_VALUE(1.)),
 .T.,.PARAMETER.);
#254=TRIMMED_CURVE('',#271,(PARAMETER_VALUE(0.)),(PARAMETER_VALUE(1.)),
 .T.,.PARAMETER.);
#255=TRIMMED_CURVE('Arc29',#186,(PARAMETER_VALUE(270.)),(
PARAMETER_VALUE(300.)),.T.,.PARAMETER.);
#256=LINE('Line67',#491,#277);
#257=LINE('Line68',#492,#278);
#258=LINE('Line69',#493,#279);
#259=LINE('Line70',#494,#280);
#260=LINE('Line72',#495,#281);
#261=LINE('Line73',#496,#282);
#262=LINE('Line74',#497,#283);
#263=LINE('Line75',#498,#284);
#264=LINE('Line76',#499,#285);
#265=LINE('Line77',#500,#286);
#266=LINE('Line78',#501,#287);
#267=LINE('Line79',#502,#288);
#268=LINE('',#503,#289);
#269=LINE('',#504,#290);
#270=LINE('',#505,#291);
#271=LINE('',#506,#292);
#272=LINE('',#542,#293);
#273=LINE('',#547,#294);
#274=LINE('',#548,#295);
#275=LINE('',#550,#296);
#276=LINE('',#552,#297);
#277=VECTOR('',#406,30.);
#278=VECTOR('',#407,30.);
#279=VECTOR('',#408,1.34348280064307);
#280=VECTOR('',#409,29.5076119054813);
#281=VECTOR('',#410,1.25);
#282=VECTOR('',#411,2.99807621135331);
#283=VECTOR('',#412,1.25);
#284=VECTOR('',#413,30.);
#285=VECTOR('',#414,1.3);
#286=VECTOR('',#415,0.282842712474618);
#287=VECTOR('',#416,25.9669872981078);
#288=VECTOR('',#417,0.0980762113533051);
#289=VECTOR('',#418,1.25);
#290=VECTOR('',#419,29.5076119054813);
#291=VECTOR('',#420,1.34348280064306);
#292=VECTOR('',#421,30.);
#293=VECTOR('',#470,1.);
#294=VECTOR('',#475,1.);
#295=VECTOR('',#476,1.);
#296=VECTOR('',#479,1.);
#297=VECTOR('',#480,1.);
#298=DRAUGHTING_PRE_DEFINED_COLOUR('blue');
#299=DRAUGHTING_PRE_DEFINED_COLOUR('white');
#300=PRESENTATION_LAYER_ASSIGNMENT('12','Layer 12',(#486,#376));
#301=PRESENTATION_LAYER_ASSIGNMENT('1','Layer 1',(#487,#488,#489,#490,#251,
#252,#253,#254,#377,#378,#379,#52,#53));
#302=PRESENTATION_LAYER_ASSIGNMENT('22','Layer 22',(#239,#240,#241,#242,
#243,#244,#245,#246,#247,#248,#249,#250,#255,#54));
#303=STYLED_ITEM('',(#332),#486);
#304=STYLED_ITEM('',(#333),#487);
#305=STYLED_ITEM('',(#334),#488);
#306=STYLED_ITEM('',(#335),#489);
#307=STYLED_ITEM('',(#336),#490);
#308=STYLED_ITEM('',(#337),#239);
#309=STYLED_ITEM('',(#338),#240);
#310=STYLED_ITEM('',(#339),#241);
#311=STYLED_ITEM('',(#340),#242);
#312=STYLED_ITEM('',(#341),#243);
#313=STYLED_ITEM('',(#342),#244);
#314=STYLED_ITEM('',(#343),#245);
#315=STYLED_ITEM('',(#344),#246);
#316=STYLED_ITEM('',(#345),#247);
#317=STYLED_ITEM('',(#346),#248);
#318=STYLED_ITEM('',(#347),#249);
#319=STYLED_ITEM('',(#348),#250);
#320=STYLED_ITEM('',(#349),#251);
#321=STYLED_ITEM('',(#350),#252);
#322=STYLED_ITEM('',(#351),#253);
#323=STYLED_ITEM('',(#352),#254);
#324=STYLED_ITEM('',(#353),#255);
#325=STYLED_ITEM('',(#354),#376);
#326=STYLED_ITEM('',(#355),#377);
#327=STYLED_ITEM('',(#356),#378);
#328=STYLED_ITEM('',(#357),#379);
#329=STYLED_ITEM('',(#358),#52);
#330=STYLED_ITEM('',(#359),#53);
#331=STYLED_ITEM('',(#360),#54);
#332=PRESENTATION_STYLE_ASSIGNMENT((#361));
#333=PRESENTATION_STYLE_ASSIGNMENT((#362));
#334=PRESENTATION_STYLE_ASSIGNMENT((#363));
#335=PRESENTATION_STYLE_ASSIGNMENT((#364));
#336=PRESENTATION_STYLE_ASSIGNMENT((#365));
#337=PRESENTATION_STYLE_ASSIGNMENT((#197));
#338=PRESENTATION_STYLE_ASSIGNMENT((#198));
#339=PRESENTATION_STYLE_ASSIGNMENT((#199));
#340=PRESENTATION_STYLE_ASSIGNMENT((#200));
#341=PRESENTATION_STYLE_ASSIGNMENT((#201));
#342=PRESENTATION_STYLE_ASSIGNMENT((#202));
#343=PRESENTATION_STYLE_ASSIGNMENT((#203));
#344=PRESENTATION_STYLE_ASSIGNMENT((#204));
#345=PRESENTATION_STYLE_ASSIGNMENT((#205));
#346=PRESENTATION_STYLE_ASSIGNMENT((#206));
#347=PRESENTATION_STYLE_ASSIGNMENT((#207));
#348=PRESENTATION_STYLE_ASSIGNMENT((#208));
#349=PRESENTATION_STYLE_ASSIGNMENT((#209));
#350=PRESENTATION_STYLE_ASSIGNMENT((#210));
#351=PRESENTATION_STYLE_ASSIGNMENT((#211));
#352=PRESENTATION_STYLE_ASSIGNMENT((#212));
#353=PRESENTATION_STYLE_ASSIGNMENT((#213));
#354=PRESENTATION_STYLE_ASSIGNMENT((#214));
#355=PRESENTATION_STYLE_ASSIGNMENT((#215));
#356=PRESENTATION_STYLE_ASSIGNMENT((#216));
#357=PRESENTATION_STYLE_ASSIGNMENT((#217));
#358=PRESENTATION_STYLE_ASSIGNMENT((#37));
#359=PRESENTATION_STYLE_ASSIGNMENT((#38));
#360=PRESENTATION_STYLE_ASSIGNMENT((#39));
#361=POINT_STYLE('',#366,POSITIVE_LENGTH_MEASURE(3.),#371);
#362=POINT_STYLE('',#367,POSITIVE_LENGTH_MEASURE(3.),#298);
#363=POINT_STYLE('',#368,POSITIVE_LENGTH_MEASURE(3.),#371);
#364=POINT_STYLE('',#369,POSITIVE_LENGTH_MEASURE(3.),#371);
#365=POINT_STYLE('',#370,POSITIVE_LENGTH_MEASURE(3.),#371);
#366=PRE_DEFINED_POINT_MARKER_SYMBOL('plus');
#367=PRE_DEFINED_POINT_MARKER_SYMBOL('plus');
#368=PRE_DEFINED_POINT_MARKER_SYMBOL('plus');
#369=PRE_DEFINED_POINT_MARKER_SYMBOL('plus');
#370=PRE_DEFINED_POINT_MARKER_SYMBOL('plus');
#371=COLOUR_RGB('Medium Maroon',0.6,0.4,0.4);
#372=COLOUR_RGB('Gray',0.501960784313725,0.501960784313725,0.501960784313725);
#373=COLOUR_RGB('Light Gray',0.8,0.8,0.8);
#374=AXIS2_PLACEMENT_3D('',#485,#404,#405);
#375=AXIS2_PLACEMENT_3D('',#507,#422,#423);
#376=AXIS2_PLACEMENT_3D('',#508,#424,#425);
#377=AXIS2_PLACEMENT_3D('PCS',#509,#426,#427);
#378=AXIS2_PLACEMENT_3D('MCS',#510,#428,#429);
#379=AXIS2_PLACEMENT_3D('CIP',#511,#430,#431);
#380=AXIS2_PLACEMENT_3D('',#512,#432,#433);
#381=AXIS2_PLACEMENT_3D('',#514,#434,#435);
#382=AXIS2_PLACEMENT_3D('',#516,#436,#437);
#383=AXIS2_PLACEMENT_3D('',#517,#438,#439);
#384=AXIS2_PLACEMENT_3D('',#519,#440,#441);
#385=AXIS2_PLACEMENT_3D('',#520,#442,#443);
#386=AXIS2_PLACEMENT_3D('',#522,#444,#445);
#387=AXIS2_PLACEMENT_3D('',#523,#446,#447);
#388=AXIS2_PLACEMENT_3D('',#525,#448,#449);
#389=AXIS2_PLACEMENT_3D('',#526,#450,#451);
#390=AXIS2_PLACEMENT_3D('',#527,#452,#453);
#391=AXIS2_PLACEMENT_3D('',#529,#454,#455);
#392=AXIS2_PLACEMENT_3D('',#530,#456,#457);
#393=AXIS2_PLACEMENT_3D('',#531,#458,#459);
#394=AXIS2_PLACEMENT_3D('',#533,#460,#461);
#395=AXIS2_PLACEMENT_3D('',#535,#462,#463);
#396=AXIS2_PLACEMENT_3D('',#537,#464,#465);
#397=AXIS2_PLACEMENT_3D('',#538,#466,#467);
#398=AXIS2_PLACEMENT_3D('',#539,#468,#469);
#399=AXIS2_PLACEMENT_3D('',#543,#471,#472);
#400=AXIS2_PLACEMENT_3D('',#544,#473,#474);
#401=AXIS2_PLACEMENT_3D('',#549,#477,#478);
#402=AXIS2_PLACEMENT_3D('',#553,#481,#482);
#403=AXIS2_PLACEMENT_3D('',#554,#483,#484);
#404=DIRECTION('',(0.,0.,1.));
#405=DIRECTION('',(1.,0.,0.));
#406=DIRECTION('',(-2.23049669408406E-16,0.,-1.));
#407=DIRECTION('',(-1.22464679914735E-16,0.,-1.));
#408=DIRECTION('',(0.930417567982022,0.,0.366501226724303));
#409=DIRECTION('',(7.52499408072344E-18,0.,1.));
#410=DIRECTION('',(-1.,0.,0.));
#411=DIRECTION('',(0.,0.,1.));
#412=DIRECTION('',(-1.,0.,0.));
#413=DIRECTION('',(0.,0.,1.));
#414=DIRECTION('',(1.,0.,0.));
#415=DIRECTION('',(0.707106781186548,0.,-0.707106781186548));
#416=DIRECTION('',(-1.28265517891564E-16,0.,-1.));
#417=DIRECTION('',(-0.500000000000003,0.,-0.866025403784437));
#418=DIRECTION('',(1.,0.,0.));
#419=DIRECTION('',(0.,0.,-1.));
#420=DIRECTION('',(-0.930417567982021,0.,-0.366501226724306));
#421=DIRECTION('',(0.,0.,-1.));
#422=DIRECTION('',(0.,1.,0.));
#423=DIRECTION('',(0.,0.,1.));
#424=DIRECTION('',(0.,0.,1.));
#425=DIRECTION('',(1.,0.,0.));
#426=DIRECTION('',(0.,0.,1.));
#427=DIRECTION('',(1.,0.,0.));
#428=DIRECTION('',(0.,0.,1.));
#429=DIRECTION('',(1.,0.,0.));
#430=DIRECTION('',(0.,0.,1.));
#431=DIRECTION('',(1.,0.,0.));
#432=DIRECTION('',(0.,0.,-1.));
#433=DIRECTION('',(-1.,0.,0.));
#434=DIRECTION('',(0.,0.,-1.));
#435=DIRECTION('',(-1.,0.,0.));
#436=DIRECTION('',(0.,0.,-1.));
#437=DIRECTION('',(-1.,0.,0.));
#438=DIRECTION('',(0.,0.,-1.));
#439=DIRECTION('',(-1.,0.,0.));
#440=DIRECTION('',(0.,0.,1.));
#441=DIRECTION('',(1.,0.,-8.39116087746674E-17));
#442=DIRECTION('',(0.,0.,-1.));
#443=DIRECTION('',(-1.,0.,0.));
#444=DIRECTION('',(0.,0.,-1.));
#445=DIRECTION('',(-1.,0.,0.));
#446=DIRECTION('',(0.,0.,-1.));
#447=DIRECTION('',(-1.,0.,0.));
#448=DIRECTION('',(0.,0.,-1.));
#449=DIRECTION('',(-1.,0.,0.));
#450=DIRECTION('',(0.,0.,1.));
#451=DIRECTION('',(1.,0.,0.));
#452=DIRECTION('',(0.,0.,-1.));
#453=DIRECTION('',(-1.,0.,0.));
#454=DIRECTION('',(0.,0.,-1.));
#455=DIRECTION('',(-1.,0.,0.));
#456=DIRECTION('',(0.,0.,-1.));
#457=DIRECTION('',(-1.,0.,0.));
#458=DIRECTION('',(0.,0.,-1.));
#459=DIRECTION('',(-1.,0.,0.));
#460=DIRECTION('',(0.,0.,-1.));
#461=DIRECTION('',(-1.,0.,0.));
#462=DIRECTION('',(0.,0.,-1.));
#463=DIRECTION('',(-1.,0.,0.));
#464=DIRECTION('',(0.,0.,1.));
#465=DIRECTION('',(1.,0.,1.91237047009907E-17));
#466=DIRECTION('',(0.,0.,-1.));
#467=DIRECTION('',(-1.,0.,0.));
#468=DIRECTION('',(0.,0.,-1.));
#469=DIRECTION('',(-1.,0.,0.));
#470=DIRECTION('',(1.17145536458252E-15,1.,0.));
#471=DIRECTION('',(0.,0.,-1.));
#472=DIRECTION('',(-1.,0.,0.));
#473=DIRECTION('',(0.,0.,-1.));
#474=DIRECTION('',(-1.,0.,0.));
#475=DIRECTION('',(-8.60858855890157E-33,-7.34862703195648E-18,-1.));
#476=DIRECTION('',(8.60858855890157E-33,-7.34862703195648E-18,1.));
#477=DIRECTION('',(0.,0.,-1.));
#478=DIRECTION('',(-1.,0.,0.));
#479=DIRECTION('',(-1.08994265131437E-15,-0.930417567982022,-0.366501226724303));
#480=DIRECTION('',(1.08994265131437E-15,-0.930417567982022,0.366501226724303));
#481=DIRECTION('',(0.,0.,1.));
#482=DIRECTION('',(1.,0.,1.91237047009907E-17));
#483=DIRECTION('',(-1.,1.17145536458252E-15,0.));
#484=DIRECTION('',(0.,0.,1.));
#485=CARTESIAN_POINT('',(0.,0.,0.));
#486=CARTESIAN_POINT('',(0.,0.,0.));
#487=CARTESIAN_POINT('',(1.25,0.,-59.5076119054813));
#488=CARTESIAN_POINT('',(0.,0.,0.));
#489=CARTESIAN_POINT('',(0.,0.,-26.1669872981078));
#490=CARTESIAN_POINT('',(0.,0.,-60.));
#491=CARTESIAN_POINT('',(5.32907051820075E-15,0.,0.));
#492=CARTESIAN_POINT('',(-1.36241956405143E-15,0.,-30.));
#493=CARTESIAN_POINT('',(-5.03635996149349E-15,0.,-60.));
#494=CARTESIAN_POINT('',(1.25,0.,-59.5076119054813));
#495=CARTESIAN_POINT('',(1.25,0.,-30.));
#496=CARTESIAN_POINT('',(1.25,0.,-30.));
#497=CARTESIAN_POINT('',(1.25,0.,-30.));
#498=CARTESIAN_POINT('',(0.,0.,-30.));
#499=CARTESIAN_POINT('',(0.,0.,0.));
#500=CARTESIAN_POINT('',(1.3,0.,0.));
#501=CARTESIAN_POINT('',(1.5,0.,-0.199999999999999));
#502=CARTESIAN_POINT('',(1.5,0.,-26.1669872981078));
#503=CARTESIAN_POINT('',(1.0263416486754E-45,0.,-30.));
#504=CARTESIAN_POINT('',(1.25,0.,-30.));
#505=CARTESIAN_POINT('',(1.24999999999999,0.,-59.5076119054813));
#506=CARTESIAN_POINT('',(0.,0.,-30.));
#507=CARTESIAN_POINT('',(2.75,0.,-27.0019237886467));
#508=CARTESIAN_POINT('',(0.,0.,0.));
#509=CARTESIAN_POINT('',(0.,0.,0.));
#510=CARTESIAN_POINT('',(0.,0.,-26.1669872981078));
#511=CARTESIAN_POINT('',(0.,0.,-60.));
#512=CARTESIAN_POINT('',(0.,0.,-26.1669872981078));
#513=CARTESIAN_POINT('',(-1.5,0.,-26.1669872981078));
#514=CARTESIAN_POINT('',(0.,0.,-0.199999999999999));
#515=CARTESIAN_POINT('',(-1.5,0.,-0.199999999999999));
#516=CARTESIAN_POINT('',(0.,0.,0.));
#517=CARTESIAN_POINT('',(0.,0.,-26.2519237886467));
#518=CARTESIAN_POINT('',(-1.45096189432334,0.,-26.2519237886467));
#519=CARTESIAN_POINT('',(0.,0.,-26.1669872981078));
#520=CARTESIAN_POINT('',(0.,0.,-27.0019237886467));
#521=CARTESIAN_POINT('',(-1.25,0.,-27.0019237886467));
#522=CARTESIAN_POINT('',(0.,0.,-27.0019237886467));
#523=CARTESIAN_POINT('',(0.,0.,-30.));
#524=CARTESIAN_POINT('',(-1.25,0.,-30.));
#525=CARTESIAN_POINT('',(0.,0.,0.));
#526=CARTESIAN_POINT('',(1.25,0.,-30.));
#527=CARTESIAN_POINT('',(0.,0.,0.));
#528=CARTESIAN_POINT('',(-1.3,0.,0.));
#529=CARTESIAN_POINT('',(0.,0.,0.));
#530=CARTESIAN_POINT('',(0.,0.,0.));
#531=CARTESIAN_POINT('',(0.,0.,-59.5076119054813));
#532=CARTESIAN_POINT('',(-1.25,0.,-59.5076119054813));
#533=CARTESIAN_POINT('',(0.,0.,-30.));
#534=CARTESIAN_POINT('',(-1.25,0.,-30.));
#535=CARTESIAN_POINT('',(0.,0.,0.));
#536=CARTESIAN_POINT('',(-5.42101086242752E-15,0.,-60.));
#537=CARTESIAN_POINT('',(0.,0.,-59.5076119054813));
#538=CARTESIAN_POINT('',(-1.33226762955019E-15,0.,-30.));
#539=CARTESIAN_POINT('',(0.,0.,-30.));
#540=CARTESIAN_POINT('',(1.46431920572815E-15,1.25,-30.));
#541=CARTESIAN_POINT('',(1.46431920572815E-15,-1.25,-30.));
#542=CARTESIAN_POINT('',(-1.56069206169621E-30,-1.33226762955019E-15,-30.));
#543=CARTESIAN_POINT('',(-1.56069206169621E-30,-1.33226762955019E-15,-30.));
#544=CARTESIAN_POINT('',(0.,0.,-59.5076119054813));
#545=CARTESIAN_POINT('',(1.46431920572815E-15,1.25,-59.5076119054813));
#546=CARTESIAN_POINT('',(1.46431920572815E-15,-1.25,-59.5076119054813));
#547=CARTESIAN_POINT('',(1.46431920572815E-15,1.25,-30.));
#548=CARTESIAN_POINT('',(1.46431920572815E-15,-1.25,-30.));
#549=CARTESIAN_POINT('',(0.,0.,0.));
#550=CARTESIAN_POINT('',(1.46431920572815E-15,1.25,-59.5076119054813));
#551=CARTESIAN_POINT('',(-5.89987089486018E-30,-5.03635996149349E-15,-60.));
#552=CARTESIAN_POINT('',(1.46431920572815E-15,-1.25,-59.5076119054813));
#553=CARTESIAN_POINT('',(0.,0.,-59.5076119054813));
#554=CARTESIAN_POINT('',(0.,0.,0.));
#555=MECHANICAL_DESIGN_GEOMETRIC_PRESENTATION_REPRESENTATION('',(#303,#304,
#305,#306,#307,#308,#309,#310,#311,#312,#313,#314,#315,#316,#317,#318,#319,
#320,#321,#322,#323,#324,#325,#326,#327,#328,#329,#330,#331),#556);
#556=(
GEOMETRIC_REPRESENTATION_CONTEXT(3)
GLOBAL_UNCERTAINTY_ASSIGNED_CONTEXT((#557))
GLOBAL_UNIT_ASSIGNED_CONTEXT((#563,#559,#558))
REPRESENTATION_CONTEXT('862','TOP_LEVEL_ASSEMBLY_PART')
);
#557=UNCERTAINTY_MEASURE_WITH_UNIT(LENGTH_MEASURE(2.E-5),#563,
'DISTANCE_ACCURACY_VALUE','Maximum Tolerance applied to model');
#558=(
NAMED_UNIT(*)
SI_UNIT($,.STERADIAN.)
SOLID_ANGLE_UNIT()
);
#559=(
CONVERSION_BASED_UNIT('DEGREE',#561)
NAMED_UNIT(#560)
PLANE_ANGLE_UNIT()
);
#560=DIMENSIONAL_EXPONENTS(0.,0.,0.,0.,0.,0.,0.);
#561=PLANE_ANGLE_MEASURE_WITH_UNIT(PLANE_ANGLE_MEASURE(0.0174532925),#562);
#562=(
NAMED_UNIT(*)
PLANE_ANGLE_UNIT()
SI_UNIT($,.RADIAN.)
);
#563=(
LENGTH_UNIT()
NAMED_UNIT(*)
SI_UNIT(.MILLI.,.METRE.)
);
ENDSEC;
END-ISO-10303-21;
