ISO-10303-21;
HEADER;
/* Generated by software containing ST-Developer
 * from STEP Tools, Inc. (www.steptools.com) 
 */
/* OPTION: using custom schema-name function */

FILE_DESCRIPTION(
/* description */ (''),
/* implementation_level */ '2;1');

FILE_NAME(
/* name */ '862.1-2700-243A1-GM_BAS.stp',
/* time_stamp */ '2021-09-08T12:53:22-06:00',
/* author */ (''),
/* organization */ (''),
/* preprocessor_version */ 'ST-DEVELOPER v16.7',
/* originating_system */ 'SIEMENS PLM Software NX 12.0',
/* authorisation */ '');

FILE_SCHEMA (('AUTOMOTIVE_DESIGN { 1 0 10303 214 3 1 1 1 }'));
ENDSEC;

DATA;
#10=CONSTRUCTIVE_GEOMETRY_REPRESENTATION_RELATIONSHIP(
'supplemental geometry','',#34,#11);
#11=CONSTRUCTIVE_GEOMETRY_REPRESENTATION('supplemental geometry',(#365,
#366,#367,#368),#536);
#12=GEOMETRICALLY_BOUNDED_WIREFRAME_SHAPE_REPRESENTATION(
'862.1-2700-243A1-GM_BAS-None',(#35),#536);
#13=PROPERTY_DEFINITION_REPRESENTATION(#17,#15);
#14=PROPERTY_DEFINITION_REPRESENTATION(#18,#16);
#15=REPRESENTATION('',(#19),#536);
#16=REPRESENTATION('',(#20),#536);
#17=PROPERTY_DEFINITION('pmi validation property','',#25);
#18=PROPERTY_DEFINITION('pmi validation property','',#25);
#19=VALUE_REPRESENTATION_ITEM('number of annotations',COUNT_MEASURE(0.));
#20=VALUE_REPRESENTATION_ITEM('number of views',COUNT_MEASURE(0.));
#21=SHAPE_REPRESENTATION_RELATIONSHIP('None',
'relationship between 862.1-2700-243A1-GM_BAS-None and 862.1-2700-243A
1-GM_BAS-None',#34,#23);
#22=SHAPE_REPRESENTATION_RELATIONSHIP('None',
'relationship between 862.1-2700-243A1-GM_BAS-None and 862.1-2700-243A
1-GM_BAS-None',#34,#12);
#23=ADVANCED_BREP_SHAPE_REPRESENTATION('862.1-2700-243A1-GM_BAS-None',(#52,
#53,#54),#536);
#24=SHAPE_DEFINITION_REPRESENTATION(#25,#34);
#25=PRODUCT_DEFINITION_SHAPE('','',#26);
#26=PRODUCT_DEFINITION(' ','',#28,#27);
#27=PRODUCT_DEFINITION_CONTEXT('part definition',#33,'design');
#28=PRODUCT_DEFINITION_FORMATION_WITH_SPECIFIED_SOURCE(' ',' ',#30,
 .NOT_KNOWN.);
#29=PRODUCT_RELATED_PRODUCT_CATEGORY('part','',(#30));
#30=PRODUCT('862.1-2700-243A1-GM_BAS','862.1-2700-243A1-GM_BAS',' ',(#31));
#31=PRODUCT_CONTEXT(' ',#33,'mechanical');
#32=APPLICATION_PROTOCOL_DEFINITION('international standard',
'automotive_design',2010,#33);
#33=APPLICATION_CONTEXT(
'core data for automotive mechanical design processes');
#34=SHAPE_REPRESENTATION('862.1-2700-243A1-GM_BAS-None',(#363),#536);
#35=GEOMETRIC_CURVE_SET('None',(#469,#470,#471,#472,#473,#228,#229,#230,
#231,#232,#233,#234,#235,#236,#237,#238,#239,#240,#241,#242,#243,#244));
#36=VERTEX_LOOP('',#156);
#37=SURFACE_STYLE_USAGE(.BOTH.,#40);
#38=SURFACE_STYLE_USAGE(.BOTH.,#41);
#39=SURFACE_STYLE_USAGE(.BOTH.,#42);
#40=SURFACE_SIDE_STYLE('',(#43));
#41=SURFACE_SIDE_STYLE('',(#44));
#42=SURFACE_SIDE_STYLE('',(#45));
#43=SURFACE_STYLE_FILL_AREA(#46);
#44=SURFACE_STYLE_FILL_AREA(#47);
#45=SURFACE_STYLE_FILL_AREA(#48);
#46=FILL_AREA_STYLE('',(#49));
#47=FILL_AREA_STYLE('',(#50));
#48=FILL_AREA_STYLE('',(#51));
#49=FILL_AREA_STYLE_COLOUR('',#361);
#50=FILL_AREA_STYLE_COLOUR('',#362);
#51=FILL_AREA_STYLE_COLOUR('',#362);
#52=MANIFOLD_SOLID_BREP('',#55);
#53=MANIFOLD_SOLID_BREP('',#56);
#54=MANIFOLD_SOLID_BREP('',#57);
#55=CLOSED_SHELL('',(#74,#75,#76,#77,#78,#79));
#56=CLOSED_SHELL('',(#80,#81,#82));
#57=CLOSED_SHELL('',(#83,#84,#85,#86));
#58=PLANE('',#376);
#59=PLANE('',#378);
#60=PLANE('',#384);
#61=PLANE('',#386);
#62=PLANE('',#390);
#63=FACE_OUTER_BOUND('',#109,.T.);
#64=FACE_OUTER_BOUND('',#110,.T.);
#65=FACE_OUTER_BOUND('',#116,.T.);
#66=FACE_OUTER_BOUND('',#117,.T.);
#67=FACE_OUTER_BOUND('',#118,.T.);
#68=FACE_OUTER_BOUND('',#119,.T.);
#69=FACE_OUTER_BOUND('',#120,.T.);
#70=CONICAL_SURFACE('',#373,1.5,30.0000000000004);
#71=CONICAL_SURFACE('',#379,1.3,44.9999999999995);
#72=CONICAL_SURFACE('',#383,1.35,69.9999999999998);
#73=CONICAL_SURFACE('',#389,1.35,69.9999999999998);
#74=ADVANCED_FACE('',(#91,#92),#87,.T.);
#75=ADVANCED_FACE('',(#93,#94),#70,.T.);
#76=ADVANCED_FACE('',(#95,#96),#88,.T.);
#77=ADVANCED_FACE('',(#63),#58,.F.);
#78=ADVANCED_FACE('',(#64),#59,.F.);
#79=ADVANCED_FACE('',(#97,#98),#71,.T.);
#80=ADVANCED_FACE('',(#99,#100),#89,.T.);
#81=ADVANCED_FACE('',(#101,#102),#72,.T.);
#82=ADVANCED_FACE('',(#65),#60,.F.);
#83=ADVANCED_FACE('',(#66),#61,.F.);
#84=ADVANCED_FACE('',(#67),#90,.T.);
#85=ADVANCED_FACE('',(#68),#73,.T.);
#86=ADVANCED_FACE('',(#69),#62,.T.);
#87=CYLINDRICAL_SURFACE('',#371,1.5);
#88=CYLINDRICAL_SURFACE('',#375,1.35);
#89=CYLINDRICAL_SURFACE('',#382,1.35);
#90=CYLINDRICAL_SURFACE('',#388,1.35);
#91=FACE_BOUND('',#103,.T.);
#92=FACE_BOUND('',#104,.T.);
#93=FACE_BOUND('',#105,.T.);
#94=FACE_BOUND('',#106,.T.);
#95=FACE_BOUND('',#107,.T.);
#96=FACE_BOUND('',#108,.T.);
#97=FACE_BOUND('',#111,.T.);
#98=FACE_BOUND('',#112,.T.);
#99=FACE_BOUND('',#113,.T.);
#100=FACE_BOUND('',#114,.T.);
#101=FACE_BOUND('',#36,.T.);
#102=FACE_BOUND('',#115,.T.);
#103=EDGE_LOOP('',(#121));
#104=EDGE_LOOP('',(#122));
#105=EDGE_LOOP('',(#123));
#106=EDGE_LOOP('',(#124));
#107=EDGE_LOOP('',(#125));
#108=EDGE_LOOP('',(#126));
#109=EDGE_LOOP('',(#127));
#110=EDGE_LOOP('',(#128));
#111=EDGE_LOOP('',(#129));
#112=EDGE_LOOP('',(#130));
#113=EDGE_LOOP('',(#131));
#114=EDGE_LOOP('',(#132));
#115=EDGE_LOOP('',(#133));
#116=EDGE_LOOP('',(#134));
#117=EDGE_LOOP('',(#135,#136));
#118=EDGE_LOOP('',(#137,#138,#139,#140));
#119=EDGE_LOOP('',(#141,#142,#143));
#120=EDGE_LOOP('',(#144,#145,#146,#147,#148));
#121=ORIENTED_EDGE('',*,*,#162,.F.);
#122=ORIENTED_EDGE('',*,*,#163,.T.);
#123=ORIENTED_EDGE('',*,*,#164,.F.);
#124=ORIENTED_EDGE('',*,*,#162,.T.);
#125=ORIENTED_EDGE('',*,*,#165,.F.);
#126=ORIENTED_EDGE('',*,*,#164,.T.);
#127=ORIENTED_EDGE('',*,*,#165,.T.);
#128=ORIENTED_EDGE('',*,*,#166,.F.);
#129=ORIENTED_EDGE('',*,*,#163,.F.);
#130=ORIENTED_EDGE('',*,*,#166,.T.);
#131=ORIENTED_EDGE('',*,*,#167,.F.);
#132=ORIENTED_EDGE('',*,*,#168,.T.);
#133=ORIENTED_EDGE('',*,*,#167,.T.);
#134=ORIENTED_EDGE('',*,*,#168,.F.);
#135=ORIENTED_EDGE('',*,*,#169,.F.);
#136=ORIENTED_EDGE('',*,*,#170,.F.);
#137=ORIENTED_EDGE('',*,*,#171,.F.);
#138=ORIENTED_EDGE('',*,*,#172,.F.);
#139=ORIENTED_EDGE('',*,*,#169,.T.);
#140=ORIENTED_EDGE('',*,*,#173,.F.);
#141=ORIENTED_EDGE('',*,*,#174,.F.);
#142=ORIENTED_EDGE('',*,*,#171,.T.);
#143=ORIENTED_EDGE('',*,*,#175,.F.);
#144=ORIENTED_EDGE('',*,*,#174,.T.);
#145=ORIENTED_EDGE('',*,*,#175,.T.);
#146=ORIENTED_EDGE('',*,*,#173,.T.);
#147=ORIENTED_EDGE('',*,*,#170,.T.);
#148=ORIENTED_EDGE('',*,*,#172,.T.);
#149=VERTEX_POINT('',#496);
#150=VERTEX_POINT('',#498);
#151=VERTEX_POINT('',#501);
#152=VERTEX_POINT('',#504);
#153=VERTEX_POINT('',#508);
#154=VERTEX_POINT('',#512);
#155=VERTEX_POINT('',#514);
#156=VERTEX_POINT('',#516);
#157=VERTEX_POINT('',#520);
#158=VERTEX_POINT('',#521);
#159=VERTEX_POINT('',#525);
#160=VERTEX_POINT('',#526);
#161=VERTEX_POINT('',#531);
#162=EDGE_CURVE('',#149,#149,#177,.T.);
#163=EDGE_CURVE('',#150,#150,#178,.T.);
#164=EDGE_CURVE('',#151,#151,#179,.T.);
#165=EDGE_CURVE('',#152,#152,#180,.T.);
#166=EDGE_CURVE('',#153,#153,#181,.T.);
#167=EDGE_CURVE('',#154,#154,#182,.T.);
#168=EDGE_CURVE('',#155,#155,#183,.T.);
#169=EDGE_CURVE('',#157,#158,#184,.T.);
#170=EDGE_CURVE('',#158,#157,#261,.T.);
#171=EDGE_CURVE('',#159,#160,#185,.T.);
#172=EDGE_CURVE('',#157,#159,#262,.T.);
#173=EDGE_CURVE('',#160,#158,#263,.T.);
#174=EDGE_CURVE('',#159,#161,#264,.T.);
#175=EDGE_CURVE('',#161,#160,#265,.T.);
#176=CIRCLE('Arc29',#364,4.44089209850063E-16);
#177=CIRCLE('',#369,1.5);
#178=CIRCLE('',#370,1.5);
#179=CIRCLE('',#372,1.35);
#180=CIRCLE('',#374,1.35);
#181=CIRCLE('',#377,1.3);
#182=CIRCLE('',#380,1.35);
#183=CIRCLE('',#381,1.35);
#184=CIRCLE('',#385,1.35);
#185=CIRCLE('',#387,1.35);
#186=CURVE_STYLE('',#207,POSITIVE_LENGTH_MEASURE(0.18),#288);
#187=CURVE_STYLE('',#208,POSITIVE_LENGTH_MEASURE(0.18),#288);
#188=CURVE_STYLE('',#209,POSITIVE_LENGTH_MEASURE(0.18),#288);
#189=CURVE_STYLE('',#210,POSITIVE_LENGTH_MEASURE(0.18),#288);
#190=CURVE_STYLE('',#211,POSITIVE_LENGTH_MEASURE(0.18),#288);
#191=CURVE_STYLE('',#212,POSITIVE_LENGTH_MEASURE(0.18),#288);
#192=CURVE_STYLE('',#213,POSITIVE_LENGTH_MEASURE(0.18),#288);
#193=CURVE_STYLE('',#214,POSITIVE_LENGTH_MEASURE(0.18),#288);
#194=CURVE_STYLE('',#215,POSITIVE_LENGTH_MEASURE(0.18),#288);
#195=CURVE_STYLE('',#216,POSITIVE_LENGTH_MEASURE(0.18),#288);
#196=CURVE_STYLE('',#217,POSITIVE_LENGTH_MEASURE(0.18),#288);
#197=CURVE_STYLE('',#218,POSITIVE_LENGTH_MEASURE(0.18),#288);
#198=CURVE_STYLE('',#219,POSITIVE_LENGTH_MEASURE(0.18),#287);
#199=CURVE_STYLE('',#220,POSITIVE_LENGTH_MEASURE(0.18),#287);
#200=CURVE_STYLE('',#221,POSITIVE_LENGTH_MEASURE(0.18),#287);
#201=CURVE_STYLE('',#222,POSITIVE_LENGTH_MEASURE(0.18),#287);
#202=CURVE_STYLE('',#223,POSITIVE_LENGTH_MEASURE(0.18),#288);
#203=CURVE_STYLE('',#224,POSITIVE_LENGTH_MEASURE(0.18),#360);
#204=CURVE_STYLE('',#225,POSITIVE_LENGTH_MEASURE(0.18),#360);
#205=CURVE_STYLE('',#226,POSITIVE_LENGTH_MEASURE(0.18),#360);
#206=CURVE_STYLE('',#227,POSITIVE_LENGTH_MEASURE(0.18),#360);
#207=DRAUGHTING_PRE_DEFINED_CURVE_FONT('chain double dash');
#208=DRAUGHTING_PRE_DEFINED_CURVE_FONT('continuous');
#209=DRAUGHTING_PRE_DEFINED_CURVE_FONT('continuous');
#210=DRAUGHTING_PRE_DEFINED_CURVE_FONT('continuous');
#211=DRAUGHTING_PRE_DEFINED_CURVE_FONT('continuous');
#212=DRAUGHTING_PRE_DEFINED_CURVE_FONT('continuous');
#213=DRAUGHTING_PRE_DEFINED_CURVE_FONT('continuous');
#214=DRAUGHTING_PRE_DEFINED_CURVE_FONT('continuous');
#215=DRAUGHTING_PRE_DEFINED_CURVE_FONT('continuous');
#216=DRAUGHTING_PRE_DEFINED_CURVE_FONT('continuous');
#217=DRAUGHTING_PRE_DEFINED_CURVE_FONT('continuous');
#218=DRAUGHTING_PRE_DEFINED_CURVE_FONT('continuous');
#219=DRAUGHTING_PRE_DEFINED_CURVE_FONT('continuous');
#220=DRAUGHTING_PRE_DEFINED_CURVE_FONT('continuous');
#221=DRAUGHTING_PRE_DEFINED_CURVE_FONT('continuous');
#222=DRAUGHTING_PRE_DEFINED_CURVE_FONT('continuous');
#223=DRAUGHTING_PRE_DEFINED_CURVE_FONT('continuous');
#224=DRAUGHTING_PRE_DEFINED_CURVE_FONT('continuous');
#225=DRAUGHTING_PRE_DEFINED_CURVE_FONT('continuous');
#226=DRAUGHTING_PRE_DEFINED_CURVE_FONT('continuous');
#227=DRAUGHTING_PRE_DEFINED_CURVE_FONT('continuous');
#228=TRIMMED_CURVE('Line67',#245,(PARAMETER_VALUE(0.)),(
PARAMETER_VALUE(1.)),.T.,.PARAMETER.);
#229=TRIMMED_CURVE('Line68',#246,(PARAMETER_VALUE(0.)),(
PARAMETER_VALUE(1.)),.T.,.PARAMETER.);
#230=TRIMMED_CURVE('Line69',#247,(PARAMETER_VALUE(0.)),(
PARAMETER_VALUE(1.)),.T.,.PARAMETER.);
#231=TRIMMED_CURVE('Line70',#248,(PARAMETER_VALUE(0.)),(
PARAMETER_VALUE(1.)),.T.,.PARAMETER.);
#232=TRIMMED_CURVE('Line72',#249,(PARAMETER_VALUE(0.)),(
PARAMETER_VALUE(1.)),.T.,.PARAMETER.);
#233=TRIMMED_CURVE('Line73',#250,(PARAMETER_VALUE(0.)),(
PARAMETER_VALUE(1.)),.T.,.PARAMETER.);
#234=TRIMMED_CURVE('Line74',#251,(PARAMETER_VALUE(0.)),(
PARAMETER_VALUE(1.)),.T.,.PARAMETER.);
#235=TRIMMED_CURVE('Line75',#252,(PARAMETER_VALUE(0.)),(
PARAMETER_VALUE(1.)),.T.,.PARAMETER.);
#236=TRIMMED_CURVE('Line76',#253,(PARAMETER_VALUE(0.)),(
PARAMETER_VALUE(1.)),.T.,.PARAMETER.);
#237=TRIMMED_CURVE('Line77',#254,(PARAMETER_VALUE(0.)),(
PARAMETER_VALUE(1.)),.T.,.PARAMETER.);
#238=TRIMMED_CURVE('Line78',#255,(PARAMETER_VALUE(0.)),(
PARAMETER_VALUE(1.)),.T.,.PARAMETER.);
#239=TRIMMED_CURVE('Line79',#256,(PARAMETER_VALUE(0.)),(
PARAMETER_VALUE(1.)),.T.,.PARAMETER.);
#240=TRIMMED_CURVE('',#257,(PARAMETER_VALUE(0.)),(PARAMETER_VALUE(1.)),
 .T.,.PARAMETER.);
#241=TRIMMED_CURVE('',#258,(PARAMETER_VALUE(0.)),(PARAMETER_VALUE(1.)),
 .T.,.PARAMETER.);
#242=TRIMMED_CURVE('',#259,(PARAMETER_VALUE(0.)),(PARAMETER_VALUE(1.)),
 .T.,.PARAMETER.);
#243=TRIMMED_CURVE('',#260,(PARAMETER_VALUE(0.)),(PARAMETER_VALUE(1.)),
 .T.,.PARAMETER.);
#244=TRIMMED_CURVE('Arc29',#176,(PARAMETER_VALUE(0.)),(
PARAMETER_VALUE(0.)),.T.,.PARAMETER.);
#245=LINE('Line67',#474,#266);
#246=LINE('Line68',#475,#267);
#247=LINE('Line69',#476,#268);
#248=LINE('Line70',#477,#269);
#249=LINE('Line72',#478,#270);
#250=LINE('Line73',#479,#271);
#251=LINE('Line74',#480,#272);
#252=LINE('Line75',#481,#273);
#253=LINE('Line76',#482,#274);
#254=LINE('Line77',#483,#275);
#255=LINE('Line78',#484,#276);
#256=LINE('Line79',#485,#277);
#257=LINE('',#486,#278);
#258=LINE('',#487,#279);
#259=LINE('',#488,#280);
#260=LINE('',#489,#281);
#261=LINE('',#522,#282);
#262=LINE('',#527,#283);
#263=LINE('',#528,#284);
#264=LINE('',#530,#285);
#265=LINE('',#532,#286);
#266=VECTOR('',#393,36.7);
#267=VECTOR('',#394,24.3);
#268=VECTOR('',#395,1.43663999284248);
#269=VECTOR('',#396,23.8086401837406);
#270=VECTOR('',#397,1.35);
#271=VECTOR('',#398,3.59999999999998);
#272=VECTOR('',#399,1.35);
#273=VECTOR('',#400,36.7);
#274=VECTOR('',#401,1.3);
#275=VECTOR('',#402,0.282842712474618);
#276=VECTOR('',#403,32.6401923788647);
#277=VECTOR('',#404,0.299999999999984);
#278=VECTOR('',#405,1.35);
#279=VECTOR('',#406,23.8086401837406);
#280=VECTOR('',#407,1.43663999284248);
#281=VECTOR('',#408,24.3);
#282=VECTOR('',#453,1.);
#283=VECTOR('',#458,1.);
#284=VECTOR('',#459,1.);
#285=VECTOR('',#462,1.);
#286=VECTOR('',#463,1.);
#287=DRAUGHTING_PRE_DEFINED_COLOUR('blue');
#288=DRAUGHTING_PRE_DEFINED_COLOUR('white');
#289=PRESENTATION_LAYER_ASSIGNMENT('12','Layer 12',(#469,#365));
#290=PRESENTATION_LAYER_ASSIGNMENT('1','Layer 1',(#470,#471,#472,#473,#240,
#241,#242,#243,#366,#367,#368,#52,#53));
#291=PRESENTATION_LAYER_ASSIGNMENT('22','Layer 22',(#228,#229,#230,#231,
#232,#233,#234,#235,#236,#237,#238,#239,#244,#54));
#292=STYLED_ITEM('',(#321),#469);
#293=STYLED_ITEM('',(#322),#470);
#294=STYLED_ITEM('',(#323),#471);
#295=STYLED_ITEM('',(#324),#472);
#296=STYLED_ITEM('',(#325),#473);
#297=STYLED_ITEM('',(#326),#228);
#298=STYLED_ITEM('',(#327),#229);
#299=STYLED_ITEM('',(#328),#230);
#300=STYLED_ITEM('',(#329),#231);
#301=STYLED_ITEM('',(#330),#232);
#302=STYLED_ITEM('',(#331),#233);
#303=STYLED_ITEM('',(#332),#234);
#304=STYLED_ITEM('',(#333),#235);
#305=STYLED_ITEM('',(#334),#236);
#306=STYLED_ITEM('',(#335),#237);
#307=STYLED_ITEM('',(#336),#238);
#308=STYLED_ITEM('',(#337),#239);
#309=STYLED_ITEM('',(#338),#240);
#310=STYLED_ITEM('',(#339),#241);
#311=STYLED_ITEM('',(#340),#242);
#312=STYLED_ITEM('',(#341),#243);
#313=STYLED_ITEM('',(#342),#244);
#314=STYLED_ITEM('',(#343),#365);
#315=STYLED_ITEM('',(#344),#366);
#316=STYLED_ITEM('',(#345),#367);
#317=STYLED_ITEM('',(#346),#368);
#318=STYLED_ITEM('',(#347),#52);
#319=STYLED_ITEM('',(#348),#53);
#320=STYLED_ITEM('',(#349),#54);
#321=PRESENTATION_STYLE_ASSIGNMENT((#350));
#322=PRESENTATION_STYLE_ASSIGNMENT((#351));
#323=PRESENTATION_STYLE_ASSIGNMENT((#352));
#324=PRESENTATION_STYLE_ASSIGNMENT((#353));
#325=PRESENTATION_STYLE_ASSIGNMENT((#354));
#326=PRESENTATION_STYLE_ASSIGNMENT((#186));
#327=PRESENTATION_STYLE_ASSIGNMENT((#187));
#328=PRESENTATION_STYLE_ASSIGNMENT((#188));
#329=PRESENTATION_STYLE_ASSIGNMENT((#189));
#330=PRESENTATION_STYLE_ASSIGNMENT((#190));
#331=PRESENTATION_STYLE_ASSIGNMENT((#191));
#332=PRESENTATION_STYLE_ASSIGNMENT((#192));
#333=PRESENTATION_STYLE_ASSIGNMENT((#193));
#334=PRESENTATION_STYLE_ASSIGNMENT((#194));
#335=PRESENTATION_STYLE_ASSIGNMENT((#195));
#336=PRESENTATION_STYLE_ASSIGNMENT((#196));
#337=PRESENTATION_STYLE_ASSIGNMENT((#197));
#338=PRESENTATION_STYLE_ASSIGNMENT((#198));
#339=PRESENTATION_STYLE_ASSIGNMENT((#199));
#340=PRESENTATION_STYLE_ASSIGNMENT((#200));
#341=PRESENTATION_STYLE_ASSIGNMENT((#201));
#342=PRESENTATION_STYLE_ASSIGNMENT((#202));
#343=PRESENTATION_STYLE_ASSIGNMENT((#203));
#344=PRESENTATION_STYLE_ASSIGNMENT((#204));
#345=PRESENTATION_STYLE_ASSIGNMENT((#205));
#346=PRESENTATION_STYLE_ASSIGNMENT((#206));
#347=PRESENTATION_STYLE_ASSIGNMENT((#37));
#348=PRESENTATION_STYLE_ASSIGNMENT((#38));
#349=PRESENTATION_STYLE_ASSIGNMENT((#39));
#350=POINT_STYLE('',#355,POSITIVE_LENGTH_MEASURE(3.),#360);
#351=POINT_STYLE('',#356,POSITIVE_LENGTH_MEASURE(3.),#287);
#352=POINT_STYLE('',#357,POSITIVE_LENGTH_MEASURE(3.),#360);
#353=POINT_STYLE('',#358,POSITIVE_LENGTH_MEASURE(3.),#360);
#354=POINT_STYLE('',#359,POSITIVE_LENGTH_MEASURE(3.),#360);
#355=PRE_DEFINED_POINT_MARKER_SYMBOL('plus');
#356=PRE_DEFINED_POINT_MARKER_SYMBOL('plus');
#357=PRE_DEFINED_POINT_MARKER_SYMBOL('plus');
#358=PRE_DEFINED_POINT_MARKER_SYMBOL('plus');
#359=PRE_DEFINED_POINT_MARKER_SYMBOL('plus');
#360=COLOUR_RGB('Medium Maroon',0.6,0.4,0.4);
#361=COLOUR_RGB('Gray',0.501960784313725,0.501960784313725,0.501960784313725);
#362=COLOUR_RGB('Light Gray',0.8,0.8,0.8);
#363=AXIS2_PLACEMENT_3D('',#468,#391,#392);
#364=AXIS2_PLACEMENT_3D('',#490,#409,#410);
#365=AXIS2_PLACEMENT_3D('',#491,#411,#412);
#366=AXIS2_PLACEMENT_3D('PCS',#492,#413,#414);
#367=AXIS2_PLACEMENT_3D('MCS',#493,#415,#416);
#368=AXIS2_PLACEMENT_3D('CIP',#494,#417,#418);
#369=AXIS2_PLACEMENT_3D('',#495,#419,#420);
#370=AXIS2_PLACEMENT_3D('',#497,#421,#422);
#371=AXIS2_PLACEMENT_3D('',#499,#423,#424);
#372=AXIS2_PLACEMENT_3D('',#500,#425,#426);
#373=AXIS2_PLACEMENT_3D('',#502,#427,#428);
#374=AXIS2_PLACEMENT_3D('',#503,#429,#430);
#375=AXIS2_PLACEMENT_3D('',#505,#431,#432);
#376=AXIS2_PLACEMENT_3D('',#506,#433,#434);
#377=AXIS2_PLACEMENT_3D('',#507,#435,#436);
#378=AXIS2_PLACEMENT_3D('',#509,#437,#438);
#379=AXIS2_PLACEMENT_3D('',#510,#439,#440);
#380=AXIS2_PLACEMENT_3D('',#511,#441,#442);
#381=AXIS2_PLACEMENT_3D('',#513,#443,#444);
#382=AXIS2_PLACEMENT_3D('',#515,#445,#446);
#383=AXIS2_PLACEMENT_3D('',#517,#447,#448);
#384=AXIS2_PLACEMENT_3D('',#518,#449,#450);
#385=AXIS2_PLACEMENT_3D('',#519,#451,#452);
#386=AXIS2_PLACEMENT_3D('',#523,#454,#455);
#387=AXIS2_PLACEMENT_3D('',#524,#456,#457);
#388=AXIS2_PLACEMENT_3D('',#529,#460,#461);
#389=AXIS2_PLACEMENT_3D('',#533,#464,#465);
#390=AXIS2_PLACEMENT_3D('',#534,#466,#467);
#391=DIRECTION('',(0.,0.,1.));
#392=DIRECTION('',(1.,0.,0.));
#393=DIRECTION('',(-2.04686742171142E-16,0.,-1.));
#394=DIRECTION('',(-1.22464679914735E-16,0.,-1.));
#395=DIRECTION('',(0.939692620785908,0.,0.34202014332567));
#396=DIRECTION('',(0.,0.,1.));
#397=DIRECTION('',(-1.,0.,0.));
#398=DIRECTION('',(0.,0.,1.));
#399=DIRECTION('',(-1.,0.,0.));
#400=DIRECTION('',(0.,0.,1.));
#401=DIRECTION('',(1.,0.,0.));
#402=DIRECTION('',(0.707106781186548,0.,-0.707106781186548));
#403=DIRECTION('',(-1.22450347174994E-16,0.,-1.));
#404=DIRECTION('',(-0.500000000000009,0.,-0.866025403784433));
#405=DIRECTION('',(1.,0.,0.));
#406=DIRECTION('',(0.,0.,-1.));
#407=DIRECTION('',(-0.939692620785907,0.,-0.342020143325672));
#408=DIRECTION('',(0.,0.,-1.));
#409=DIRECTION('',(0.,1.,0.));
#410=DIRECTION('',(0.,0.,1.));
#411=DIRECTION('',(0.,0.,1.));
#412=DIRECTION('',(1.,0.,0.));
#413=DIRECTION('',(0.,0.,1.));
#414=DIRECTION('',(1.,0.,0.));
#415=DIRECTION('',(0.,0.,1.));
#416=DIRECTION('',(1.,0.,0.));
#417=DIRECTION('',(0.,0.,1.));
#418=DIRECTION('',(1.,0.,0.));
#419=DIRECTION('',(0.,0.,-1.));
#420=DIRECTION('',(-1.,0.,0.));
#421=DIRECTION('',(0.,0.,-1.));
#422=DIRECTION('',(-1.,0.,0.));
#423=DIRECTION('',(0.,0.,-1.));
#424=DIRECTION('',(-1.,0.,0.));
#425=DIRECTION('',(0.,0.,-1.));
#426=DIRECTION('',(-1.,0.,0.));
#427=DIRECTION('',(0.,0.,1.));
#428=DIRECTION('',(1.,0.,-1.19873726820951E-17));
#429=DIRECTION('',(0.,0.,-1.));
#430=DIRECTION('',(-1.,0.,0.));
#431=DIRECTION('',(0.,0.,-1.));
#432=DIRECTION('',(-1.,0.,0.));
#433=DIRECTION('',(0.,0.,1.));
#434=DIRECTION('',(1.,0.,0.));
#435=DIRECTION('',(0.,0.,-1.));
#436=DIRECTION('',(-1.,0.,0.));
#437=DIRECTION('',(0.,0.,-1.));
#438=DIRECTION('',(-1.,0.,0.));
#439=DIRECTION('',(0.,0.,-1.));
#440=DIRECTION('',(-1.,0.,0.));
#441=DIRECTION('',(0.,0.,-1.));
#442=DIRECTION('',(-1.,0.,0.));
#443=DIRECTION('',(0.,0.,-1.));
#444=DIRECTION('',(-1.,0.,0.));
#445=DIRECTION('',(0.,0.,-1.));
#446=DIRECTION('',(-1.,0.,0.));
#447=DIRECTION('',(0.,0.,1.));
#448=DIRECTION('',(1.,0.,1.51458629700747E-17));
#449=DIRECTION('',(0.,0.,-1.));
#450=DIRECTION('',(-1.,0.,0.));
#451=DIRECTION('',(0.,0.,-1.));
#452=DIRECTION('',(-1.,0.,0.));
#453=DIRECTION('',(1.17145536458252E-15,1.,0.));
#454=DIRECTION('',(0.,0.,-1.));
#455=DIRECTION('',(-1.,0.,0.));
#456=DIRECTION('',(0.,0.,-1.));
#457=DIRECTION('',(-1.,0.,0.));
#458=DIRECTION('',(0.,0.,-1.));
#459=DIRECTION('',(0.,0.,1.));
#460=DIRECTION('',(0.,0.,-1.));
#461=DIRECTION('',(-1.,0.,0.));
#462=DIRECTION('',(-1.10080796167826E-15,-0.939692620785908,-0.34202014332567));
#463=DIRECTION('',(1.10080796167826E-15,-0.939692620785908,0.34202014332567));
#464=DIRECTION('',(0.,0.,1.));
#465=DIRECTION('',(1.,0.,1.51458629700747E-17));
#466=DIRECTION('',(-1.,1.17145536458252E-15,0.));
#467=DIRECTION('',(0.,0.,1.));
#468=CARTESIAN_POINT('',(0.,0.,0.));
#469=CARTESIAN_POINT('',(0.,0.,0.));
#470=CARTESIAN_POINT('',(1.35,0.,-60.5086401837406));
#471=CARTESIAN_POINT('',(0.,0.,0.));
#472=CARTESIAN_POINT('',(0.,0.,-32.8401923788647));
#473=CARTESIAN_POINT('',(0.,0.,-61.));
#474=CARTESIAN_POINT('',(5.32907051820075E-15,0.,0.));
#475=CARTESIAN_POINT('',(-2.18293291948016E-15,0.,-36.7));
#476=CARTESIAN_POINT('',(-5.15882464140823E-15,0.,-61.));
#477=CARTESIAN_POINT('',(1.35,0.,-60.5086401837406));
#478=CARTESIAN_POINT('',(1.35,0.,-36.7));
#479=CARTESIAN_POINT('',(1.35,0.,-36.7));
#480=CARTESIAN_POINT('',(1.35,0.,-36.7));
#481=CARTESIAN_POINT('',(0.,0.,-36.7));
#482=CARTESIAN_POINT('',(0.,0.,0.));
#483=CARTESIAN_POINT('',(1.3,0.,0.));
#484=CARTESIAN_POINT('',(1.5,0.,-0.199999999999999));
#485=CARTESIAN_POINT('',(1.5,0.,-32.8401923788647));
#486=CARTESIAN_POINT('',(1.0263416486754E-45,0.,-36.7));
#487=CARTESIAN_POINT('',(1.35,0.,-36.7));
#488=CARTESIAN_POINT('',(1.34999999999999,0.,-60.5086401837406));
#489=CARTESIAN_POINT('',(0.,0.,-36.7));
#490=CARTESIAN_POINT('',(1.35,0.,-33.1));
#491=CARTESIAN_POINT('',(0.,0.,0.));
#492=CARTESIAN_POINT('',(0.,0.,0.));
#493=CARTESIAN_POINT('',(0.,0.,-32.8401923788647));
#494=CARTESIAN_POINT('',(0.,0.,-61.));
#495=CARTESIAN_POINT('',(0.,0.,-32.8401923788647));
#496=CARTESIAN_POINT('',(-1.5,0.,-32.8401923788647));
#497=CARTESIAN_POINT('',(0.,0.,-0.200000000000003));
#498=CARTESIAN_POINT('',(-1.5,0.,-0.200000000000003));
#499=CARTESIAN_POINT('',(0.,0.,0.));
#500=CARTESIAN_POINT('',(0.,0.,-33.1));
#501=CARTESIAN_POINT('',(-1.35,0.,-33.1));
#502=CARTESIAN_POINT('',(0.,0.,-32.8401923788647));
#503=CARTESIAN_POINT('',(0.,0.,-36.7));
#504=CARTESIAN_POINT('',(-1.35,0.,-36.7));
#505=CARTESIAN_POINT('',(0.,0.,0.));
#506=CARTESIAN_POINT('',(1.35,0.,-36.7));
#507=CARTESIAN_POINT('',(0.,0.,0.));
#508=CARTESIAN_POINT('',(-1.3,0.,0.));
#509=CARTESIAN_POINT('',(0.,0.,0.));
#510=CARTESIAN_POINT('',(0.,0.,0.));
#511=CARTESIAN_POINT('',(0.,0.,-60.5086401837406));
#512=CARTESIAN_POINT('',(-1.35,0.,-60.5086401837406));
#513=CARTESIAN_POINT('',(0.,0.,-36.7));
#514=CARTESIAN_POINT('',(-1.35,0.,-36.7));
#515=CARTESIAN_POINT('',(0.,0.,0.));
#516=CARTESIAN_POINT('',(-5.20417042793042E-15,0.,-61.));
#517=CARTESIAN_POINT('',(0.,0.,-60.5086401837406));
#518=CARTESIAN_POINT('',(-2.22044604925031E-15,0.,-36.7));
#519=CARTESIAN_POINT('',(0.,0.,-36.7));
#520=CARTESIAN_POINT('',(1.5814647421864E-15,1.35,-36.7));
#521=CARTESIAN_POINT('',(1.5814647421864E-15,-1.35,-36.7));
#522=CARTESIAN_POINT('',(-2.60115343616035E-30,-2.22044604925031E-15,-36.7));
#523=CARTESIAN_POINT('',(-2.60115343616035E-30,-2.22044604925031E-15,-36.7));
#524=CARTESIAN_POINT('',(0.,0.,-60.5086401837406));
#525=CARTESIAN_POINT('',(1.5814647421864E-15,1.35,-60.5086401837406));
#526=CARTESIAN_POINT('',(1.5814647421864E-15,-1.35,-60.5086401837406));
#527=CARTESIAN_POINT('',(1.5814647421864E-15,1.35,-36.7));
#528=CARTESIAN_POINT('',(1.5814647421864E-15,-1.35,-36.7));
#529=CARTESIAN_POINT('',(0.,0.,0.));
#530=CARTESIAN_POINT('',(1.5814647421864E-15,1.35,-60.5086401837406));
#531=CARTESIAN_POINT('',(-6.04333280111818E-30,-5.15882464140823E-15,-61.));
#532=CARTESIAN_POINT('',(1.5814647421864E-15,-1.35,-60.5086401837406));
#533=CARTESIAN_POINT('',(0.,0.,-60.5086401837406));
#534=CARTESIAN_POINT('',(0.,0.,0.));
#535=MECHANICAL_DESIGN_GEOMETRIC_PRESENTATION_REPRESENTATION('',(#292,#293,
#294,#295,#296,#297,#298,#299,#300,#301,#302,#303,#304,#305,#306,#307,#308,
#309,#310,#311,#312,#313,#314,#315,#316,#317,#318,#319,#320),#536);
#536=(
GEOMETRIC_REPRESENTATION_CONTEXT(3)
GLOBAL_UNCERTAINTY_ASSIGNED_CONTEXT((#537))
GLOBAL_UNIT_ASSIGNED_CONTEXT((#543,#539,#538))
REPRESENTATION_CONTEXT('862','TOP_LEVEL_ASSEMBLY_PART')
);
#537=UNCERTAINTY_MEASURE_WITH_UNIT(LENGTH_MEASURE(2.E-5),#543,
'DISTANCE_ACCURACY_VALUE','Maximum Tolerance applied to model');
#538=(
NAMED_UNIT(*)
SI_UNIT($,.STERADIAN.)
SOLID_ANGLE_UNIT()
);
#539=(
CONVERSION_BASED_UNIT('DEGREE',#541)
NAMED_UNIT(#540)
PLANE_ANGLE_UNIT()
);
#540=DIMENSIONAL_EXPONENTS(0.,0.,0.,0.,0.,0.,0.);
#541=PLANE_ANGLE_MEASURE_WITH_UNIT(PLANE_ANGLE_MEASURE(0.0174532925),#542);
#542=(
NAMED_UNIT(*)
PLANE_ANGLE_UNIT()
SI_UNIT($,.RADIAN.)
);
#543=(
LENGTH_UNIT()
NAMED_UNIT(*)
SI_UNIT(.MILLI.,.METRE.)
);
ENDSEC;
END-ISO-10303-21;
