ISO-10303-21;
HEADER;
/* Generated by software containing ST-Developer
 * from STEP Tools, Inc. (www.steptools.com) 
 */
/* OPTION: using custom schema-name function */

FILE_DESCRIPTION(
/* description */ (''),
/* implementation_level */ '2;1');

FILE_NAME(
/* name */ '1722250688647.stp',
/* time_stamp */ '2024-07-29T11:58:14+01:00',
/* author */ (''),
/* organization */ ('SMS'),
/* preprocessor_version */ 'ST-DEVELOPER v16.7',
/* originating_system */ 'SIEMENS PLM Software NX 12.0',
/* authorisation */ '');

FILE_SCHEMA (('AUTOMOTIVE_DESIGN { 1 0 10303 214 3 1 1 1 }'));
ENDSEC;

DATA;
#10=CONSTRUCTIVE_GEOMETRY_REPRESENTATION_RELATIONSHIP(
'supplemental geometry','',#26,#11);
#11=CONSTRUCTIVE_GEOMETRY_REPRESENTATION('supplemental geometry',(#217,
#218,#219),#330);
#12=GEOMETRICALLY_BOUNDED_WIREFRAME_SHAPE_REPRESENTATION(
'462.1-2910-140A0-XM H10F-None',(#27),#330);
#13=SHAPE_REPRESENTATION_RELATIONSHIP('None',
'relationship between 462.1-2910-140A0-XM H10F-None and 462.1-2910-140
A0-XM H10F-None',#26,#15);
#14=SHAPE_REPRESENTATION_RELATIONSHIP('None',
'relationship between 462.1-2910-140A0-XM H10F-None and 462.1-2910-140
A0-XM H10F-None',#26,#12);
#15=ADVANCED_BREP_SHAPE_REPRESENTATION('462.1-2910-140A0-XM H10F-None',
(#39,#40),#330);
#16=SHAPE_DEFINITION_REPRESENTATION(#17,#26);
#17=PRODUCT_DEFINITION_SHAPE('','',#18);
#18=PRODUCT_DEFINITION(' ','',#20,#19);
#19=PRODUCT_DEFINITION_CONTEXT('part definition',#25,'design');
#20=PRODUCT_DEFINITION_FORMATION_WITH_SPECIFIED_SOURCE(' ',' ',#22,
 .NOT_KNOWN.);
#21=PRODUCT_RELATED_PRODUCT_CATEGORY('part','',(#22));
#22=PRODUCT('462.1-2910-140A0-XM H10F','462.1-2910-140A0-XM H10F',' ',(#23));
#23=PRODUCT_CONTEXT(' ',#25,'mechanical');
#24=APPLICATION_PROTOCOL_DEFINITION('international standard',
'automotive_design',2010,#25);
#25=APPLICATION_CONTEXT(
'core data for automotive mechanical design processes');
#26=SHAPE_REPRESENTATION('462.1-2910-140A0-XM H10F-None',(#215),#330);
#27=GEOMETRIC_CURVE_SET('None',(#280,#281,#282,#283,#142,#143,#144,#145,
#146,#147,#148,#149,#109));
#28=VERTEX_LOOP('',#101);
#29=SURFACE_STYLE_USAGE(.BOTH.,#31);
#30=SURFACE_STYLE_USAGE(.BOTH.,#32);
#31=SURFACE_SIDE_STYLE('',(#33));
#32=SURFACE_SIDE_STYLE('',(#34));
#33=SURFACE_STYLE_FILL_AREA(#35);
#34=SURFACE_STYLE_FILL_AREA(#36);
#35=FILL_AREA_STYLE('',(#37));
#36=FILL_AREA_STYLE('',(#38));
#37=FILL_AREA_STYLE_COLOUR('',#165);
#38=FILL_AREA_STYLE_COLOUR('',#166);
#39=MANIFOLD_SOLID_BREP('NOCUT',#41);
#40=MANIFOLD_SOLID_BREP('CUT',#42);
#41=CLOSED_SHELL('',(#58,#59,#60,#61,#62));
#42=CLOSED_SHELL('',(#63,#64,#65));
#43=TOROIDAL_SURFACE('',#228,2.455,0.999999999999999);
#44=CYLINDRICAL_SURFACE('',#227,1.5);
#45=CYLINDRICAL_SURFACE('',#233,1.455);
#46=CONICAL_SURFACE('',#225,1.5,29.9999999999999);
#47=CONICAL_SURFACE('',#232,1.455,64.9999999999999);
#48=FACE_BOUND('',#74,.T.);
#49=FACE_BOUND('',#75,.T.);
#50=FACE_BOUND('',#76,.T.);
#51=FACE_BOUND('',#77,.T.);
#52=FACE_BOUND('',#78,.T.);
#53=FACE_BOUND('',#79,.T.);
#54=FACE_BOUND('',#28,.T.);
#55=FACE_BOUND('',#81,.T.);
#56=FACE_BOUND('',#82,.T.);
#57=FACE_BOUND('',#83,.T.);
#58=ADVANCED_FACE('',(#69),#66,.T.);
#59=ADVANCED_FACE('',(#70),#67,.F.);
#60=ADVANCED_FACE('',(#48,#49),#46,.T.);
#61=ADVANCED_FACE('',(#50,#51),#44,.T.);
#62=ADVANCED_FACE('',(#52,#53),#43,.F.);
#63=ADVANCED_FACE('',(#71),#68,.F.);
#64=ADVANCED_FACE('',(#54,#55),#47,.T.);
#65=ADVANCED_FACE('',(#56,#57),#45,.T.);
#66=PLANE('',#221);
#67=PLANE('',#223);
#68=PLANE('',#230);
#69=FACE_OUTER_BOUND('',#72,.T.);
#70=FACE_OUTER_BOUND('',#73,.T.);
#71=FACE_OUTER_BOUND('',#80,.T.);
#72=EDGE_LOOP('',(#84));
#73=EDGE_LOOP('',(#85));
#74=EDGE_LOOP('',(#86));
#75=EDGE_LOOP('',(#87));
#76=EDGE_LOOP('',(#88));
#77=EDGE_LOOP('',(#89));
#78=EDGE_LOOP('',(#90));
#79=EDGE_LOOP('',(#91));
#80=EDGE_LOOP('',(#92));
#81=EDGE_LOOP('',(#93));
#82=EDGE_LOOP('',(#94));
#83=EDGE_LOOP('',(#95));
#84=ORIENTED_EDGE('',*,*,#103,.T.);
#85=ORIENTED_EDGE('',*,*,#104,.F.);
#86=ORIENTED_EDGE('',*,*,#104,.T.);
#87=ORIENTED_EDGE('',*,*,#105,.F.);
#88=ORIENTED_EDGE('',*,*,#105,.T.);
#89=ORIENTED_EDGE('',*,*,#106,.F.);
#90=ORIENTED_EDGE('',*,*,#106,.T.);
#91=ORIENTED_EDGE('',*,*,#103,.F.);
#92=ORIENTED_EDGE('',*,*,#107,.F.);
#93=ORIENTED_EDGE('',*,*,#108,.T.);
#94=ORIENTED_EDGE('',*,*,#108,.F.);
#95=ORIENTED_EDGE('',*,*,#107,.T.);
#96=VERTEX_POINT('',#309);
#97=VERTEX_POINT('',#312);
#98=VERTEX_POINT('',#315);
#99=VERTEX_POINT('',#318);
#100=VERTEX_POINT('',#322);
#101=VERTEX_POINT('',#324);
#102=VERTEX_POINT('',#326);
#103=EDGE_CURVE('',#96,#96,#111,.T.);
#104=EDGE_CURVE('',#97,#97,#112,.T.);
#105=EDGE_CURVE('',#98,#98,#113,.T.);
#106=EDGE_CURVE('',#99,#99,#114,.T.);
#107=EDGE_CURVE('',#100,#100,#115,.T.);
#108=EDGE_CURVE('',#102,#102,#116,.T.);
#109=B_SPLINE_CURVE_WITH_KNOTS('CUTTING PART LINE',3,(#292,#293,#294,#295,
#296,#297,#298,#299,#300,#301,#302,#303,#304),.UNSPECIFIED.,.T.,.F.,(4,
3,3,3,4),(0.,0.448616088099771,0.49274278926694,0.960007627113703,1.),
 .UNSPECIFIED.);
#110=CIRCLE('Arc1',#216,0.999999999999999);
#111=CIRCLE('',#220,1.455);
#112=CIRCLE('',#222,1.32679491924311);
#113=CIRCLE('',#224,1.5);
#114=CIRCLE('',#226,1.5);
#115=CIRCLE('',#229,1.455);
#116=CIRCLE('',#231,1.455);
#117=INVISIBILITY((#168));
#118=CURVE_STYLE('',#130,POSITIVE_LENGTH_MEASURE(0.18),#213);
#119=CURVE_STYLE('',#131,POSITIVE_LENGTH_MEASURE(0.18),#213);
#120=CURVE_STYLE('',#132,POSITIVE_LENGTH_MEASURE(0.18),#213);
#121=CURVE_STYLE('',#133,POSITIVE_LENGTH_MEASURE(0.18),#213);
#122=CURVE_STYLE('',#134,POSITIVE_LENGTH_MEASURE(0.18),#213);
#123=CURVE_STYLE('',#135,POSITIVE_LENGTH_MEASURE(0.18),#213);
#124=CURVE_STYLE('',#136,POSITIVE_LENGTH_MEASURE(0.18),#213);
#125=CURVE_STYLE('',#137,POSITIVE_LENGTH_MEASURE(0.18),#213);
#126=CURVE_STYLE('',#138,POSITIVE_LENGTH_MEASURE(0.18),#214);
#127=CURVE_STYLE('',#139,POSITIVE_LENGTH_MEASURE(0.18),#164);
#128=CURVE_STYLE('',#140,POSITIVE_LENGTH_MEASURE(0.18),#164);
#129=CURVE_STYLE('',#141,POSITIVE_LENGTH_MEASURE(0.18),#164);
#130=DRAUGHTING_PRE_DEFINED_CURVE_FONT('continuous');
#131=DRAUGHTING_PRE_DEFINED_CURVE_FONT('continuous');
#132=DRAUGHTING_PRE_DEFINED_CURVE_FONT('continuous');
#133=DRAUGHTING_PRE_DEFINED_CURVE_FONT('continuous');
#134=DRAUGHTING_PRE_DEFINED_CURVE_FONT('continuous');
#135=DRAUGHTING_PRE_DEFINED_CURVE_FONT('continuous');
#136=DRAUGHTING_PRE_DEFINED_CURVE_FONT('continuous');
#137=DRAUGHTING_PRE_DEFINED_CURVE_FONT('continuous');
#138=DRAUGHTING_PRE_DEFINED_CURVE_FONT('continuous');
#139=DRAUGHTING_PRE_DEFINED_CURVE_FONT('continuous');
#140=DRAUGHTING_PRE_DEFINED_CURVE_FONT('continuous');
#141=DRAUGHTING_PRE_DEFINED_CURVE_FONT('continuous');
#142=TRIMMED_CURVE('Line1',#150,(PARAMETER_VALUE(0.)),(
PARAMETER_VALUE(1.)),.T.,.PARAMETER.);
#143=TRIMMED_CURVE('Line3',#151,(PARAMETER_VALUE(0.)),(
PARAMETER_VALUE(1.)),.T.,.PARAMETER.);
#144=TRIMMED_CURVE('Line6',#152,(PARAMETER_VALUE(0.)),(
PARAMETER_VALUE(1.)),.T.,.PARAMETER.);
#145=TRIMMED_CURVE('Line7',#153,(PARAMETER_VALUE(0.)),(
PARAMETER_VALUE(1.)),.T.,.PARAMETER.);
#146=TRIMMED_CURVE('Line8',#154,(PARAMETER_VALUE(0.)),(
PARAMETER_VALUE(1.)),.T.,.PARAMETER.);
#147=TRIMMED_CURVE('Line9',#155,(PARAMETER_VALUE(0.)),(
PARAMETER_VALUE(1.)),.T.,.PARAMETER.);
#148=TRIMMED_CURVE('Line11',#156,(PARAMETER_VALUE(0.)),(
PARAMETER_VALUE(1.)),.T.,.PARAMETER.);
#149=TRIMMED_CURVE('Arc1',#110,(PARAMETER_VALUE(72.7461468826428)),(
PARAMETER_VALUE(90.)),.T.,.PARAMETER.);
#150=LINE('Line1',#284,#157);
#151=LINE('Line3',#285,#158);
#152=LINE('Line6',#286,#159);
#153=LINE('Line7',#287,#160);
#154=LINE('Line8',#288,#161);
#155=LINE('Line9',#289,#162);
#156=LINE('Line11',#290,#163);
#157=VECTOR('',#236,20.4033942010007);
#158=VECTOR('',#237,2.22044604925031E-16);
#159=VECTOR('',#238,16.3215223573845);
#160=VECTOR('',#239,1.60541487209043);
#161=VECTOR('',#240,17.);
#162=VECTOR('',#241,1.455);
#163=VECTOR('',#242,0.346410161513776);
#164=COLOUR_RGB('Medium Maroon',0.6,0.4,0.4);
#165=COLOUR_RGB('Medium Gray',0.501960784313725,0.501960784313725,0.501960784313725);
#166=COLOUR_RGB('Light Gray',0.8,0.8,0.8);
#167=PRESENTATION_LAYER_ASSIGNMENT('1','Layer 1',(#280,#281,#282,#283,#109,
#217,#218,#219,#39,#40));
#168=PRESENTATION_LAYER_ASSIGNMENT('40','Layer 40',(#142,#143,#144,#145,
#146,#147,#148,#149));
#169=STYLED_ITEM('',(#187),#280);
#170=STYLED_ITEM('',(#188),#281);
#171=STYLED_ITEM('',(#189),#282);
#172=STYLED_ITEM('',(#190),#283);
#173=STYLED_ITEM('',(#191),#142);
#174=STYLED_ITEM('',(#192),#143);
#175=STYLED_ITEM('',(#193),#144);
#176=STYLED_ITEM('',(#194),#145);
#177=STYLED_ITEM('',(#195),#146);
#178=STYLED_ITEM('',(#196),#147);
#179=STYLED_ITEM('',(#197),#148);
#180=STYLED_ITEM('',(#198),#149);
#181=STYLED_ITEM('',(#199),#109);
#182=STYLED_ITEM('',(#200),#217);
#183=STYLED_ITEM('',(#201),#218);
#184=STYLED_ITEM('',(#202),#219);
#185=STYLED_ITEM('',(#203),#39);
#186=STYLED_ITEM('',(#204),#40);
#187=PRESENTATION_STYLE_ASSIGNMENT((#205));
#188=PRESENTATION_STYLE_ASSIGNMENT((#206));
#189=PRESENTATION_STYLE_ASSIGNMENT((#207));
#190=PRESENTATION_STYLE_ASSIGNMENT((#208));
#191=PRESENTATION_STYLE_ASSIGNMENT((#118));
#192=PRESENTATION_STYLE_ASSIGNMENT((#119));
#193=PRESENTATION_STYLE_ASSIGNMENT((#120));
#194=PRESENTATION_STYLE_ASSIGNMENT((#121));
#195=PRESENTATION_STYLE_ASSIGNMENT((#122));
#196=PRESENTATION_STYLE_ASSIGNMENT((#123));
#197=PRESENTATION_STYLE_ASSIGNMENT((#124));
#198=PRESENTATION_STYLE_ASSIGNMENT((#125));
#199=PRESENTATION_STYLE_ASSIGNMENT((#126));
#200=PRESENTATION_STYLE_ASSIGNMENT((#127));
#201=PRESENTATION_STYLE_ASSIGNMENT((#128));
#202=PRESENTATION_STYLE_ASSIGNMENT((#129));
#203=PRESENTATION_STYLE_ASSIGNMENT((#29));
#204=PRESENTATION_STYLE_ASSIGNMENT((#30));
#205=POINT_STYLE('',#209,POSITIVE_LENGTH_MEASURE(3.),#213);
#206=POINT_STYLE('',#210,POSITIVE_LENGTH_MEASURE(3.),#164);
#207=POINT_STYLE('',#211,POSITIVE_LENGTH_MEASURE(3.),#164);
#208=POINT_STYLE('',#212,POSITIVE_LENGTH_MEASURE(3.),#164);
#209=PRE_DEFINED_POINT_MARKER_SYMBOL('plus');
#210=PRE_DEFINED_POINT_MARKER_SYMBOL('plus');
#211=PRE_DEFINED_POINT_MARKER_SYMBOL('plus');
#212=PRE_DEFINED_POINT_MARKER_SYMBOL('plus');
#213=DRAUGHTING_PRE_DEFINED_COLOUR('white');
#214=DRAUGHTING_PRE_DEFINED_COLOUR('blue');
#215=AXIS2_PLACEMENT_3D('',#279,#234,#235);
#216=AXIS2_PLACEMENT_3D('',#291,#243,#244);
#217=AXIS2_PLACEMENT_3D('PCS',#305,#245,#246);
#218=AXIS2_PLACEMENT_3D('MCS',#306,#247,#248);
#219=AXIS2_PLACEMENT_3D('CIP',#307,#249,#250);
#220=AXIS2_PLACEMENT_3D('',#308,#251,#252);
#221=AXIS2_PLACEMENT_3D('',#310,#253,#254);
#222=AXIS2_PLACEMENT_3D('',#311,#255,#256);
#223=AXIS2_PLACEMENT_3D('',#313,#257,#258);
#224=AXIS2_PLACEMENT_3D('',#314,#259,#260);
#225=AXIS2_PLACEMENT_3D('',#316,#261,#262);
#226=AXIS2_PLACEMENT_3D('',#317,#263,#264);
#227=AXIS2_PLACEMENT_3D('',#319,#265,#266);
#228=AXIS2_PLACEMENT_3D('',#320,#267,#268);
#229=AXIS2_PLACEMENT_3D('',#321,#269,#270);
#230=AXIS2_PLACEMENT_3D('',#323,#271,#272);
#231=AXIS2_PLACEMENT_3D('',#325,#273,#274);
#232=AXIS2_PLACEMENT_3D('',#327,#275,#276);
#233=AXIS2_PLACEMENT_3D('',#328,#277,#278);
#234=DIRECTION('',(0.,0.,1.));
#235=DIRECTION('',(1.,0.,0.));
#236=DIRECTION('',(1.30592745150691E-16,0.,-1.));
#237=DIRECTION('',(-1.,0.,0.));
#238=DIRECTION('',(1.22439647513709E-16,0.,-1.));
#239=DIRECTION('',(-0.906307787036649,0.,-0.4226182617407));
#240=DIRECTION('',(0.,0.,1.));
#241=DIRECTION('',(1.,0.,0.));
#242=DIRECTION('',(-0.5,0.,0.866025403784438));
#243=DIRECTION('',(0.,-1.,0.));
#244=DIRECTION('',(0.,0.,1.));
#245=DIRECTION('',(0.,0.,1.));
#246=DIRECTION('',(1.,0.,0.));
#247=DIRECTION('',(0.,0.,1.));
#248=DIRECTION('',(1.,0.,0.));
#249=DIRECTION('',(0.,0.,1.));
#250=DIRECTION('',(1.,0.,0.));
#251=DIRECTION('',(0.,0.,-1.));
#252=DIRECTION('',(-1.,0.,0.));
#253=DIRECTION('',(0.,0.,-1.));
#254=DIRECTION('',(-1.,0.,0.));
#255=DIRECTION('',(0.,0.,-1.));
#256=DIRECTION('',(-1.,0.,0.));
#257=DIRECTION('',(0.,0.,-1.));
#258=DIRECTION('',(-1.,0.,0.));
#259=DIRECTION('',(0.,0.,-1.));
#260=DIRECTION('',(-1.,0.,0.));
#261=DIRECTION('',(0.,0.,-1.));
#262=DIRECTION('',(-1.,0.,5.99368634104767E-17));
#263=DIRECTION('',(0.,0.,-1.));
#264=DIRECTION('',(-1.,0.,0.));
#265=DIRECTION('',(0.,0.,-1.));
#266=DIRECTION('',(-1.,0.,0.));
#267=DIRECTION('',(0.,0.,-1.));
#268=DIRECTION('',(-1.,0.,0.));
#269=DIRECTION('',(0.,0.,-1.));
#270=DIRECTION('',(-1.,0.,0.));
#271=DIRECTION('',(0.,0.,-1.));
#272=DIRECTION('',(-1.,0.,0.));
#273=DIRECTION('',(0.,0.,-1.));
#274=DIRECTION('',(-1.,0.,0.));
#275=DIRECTION('',(0.,0.,1.));
#276=DIRECTION('',(1.,0.,-1.61673276622253E-17));
#277=DIRECTION('',(0.,0.,-1.));
#278=DIRECTION('',(-1.,0.,0.));
#279=CARTESIAN_POINT('',(0.,0.,0.));
#280=CARTESIAN_POINT('CRP',(1.455,0.,-37.3215223573845));
#281=CARTESIAN_POINT('',(0.,0.,0.));
#282=CARTESIAN_POINT('',(0.,0.,-20.7033942010007));
#283=CARTESIAN_POINT('',(0.,0.,-38.));
#284=CARTESIAN_POINT('',(1.5,0.,-0.3));
#285=CARTESIAN_POINT('',(1.455,0.,-21.));
#286=CARTESIAN_POINT('',(1.455,0.,-21.));
#287=CARTESIAN_POINT('',(1.455,0.,-37.3215223573845));
#288=CARTESIAN_POINT('',(0.,0.,-38.));
#289=CARTESIAN_POINT('',(0.,0.,-21.));
#290=CARTESIAN_POINT('',(1.5,0.,-0.3));
#291=CARTESIAN_POINT('',(2.455,0.,-21.));
#292=CARTESIAN_POINT('',(1.455,0.,-21.));
#293=CARTESIAN_POINT('',(1.455,0.,-26.4405074524615));
#294=CARTESIAN_POINT('',(1.455,0.,-31.881014904923));
#295=CARTESIAN_POINT('',(1.455,0.,-37.3215223573845));
#296=CARTESIAN_POINT('',(0.970000000000002,0.,-37.5476815715897));
#297=CARTESIAN_POINT('',(0.485000000000001,0.,-37.7738407857948));
#298=CARTESIAN_POINT('',(0.,0.,-38.));
#299=CARTESIAN_POINT('',(0.,0.,-32.3333333333333));
#300=CARTESIAN_POINT('',(0.,0.,-26.6666666666667));
#301=CARTESIAN_POINT('',(0.,0.,-21.));
#302=CARTESIAN_POINT('',(0.485,0.,-21.));
#303=CARTESIAN_POINT('',(0.970000000000001,0.,-21.));
#304=CARTESIAN_POINT('',(1.455,0.,-21.));
#305=CARTESIAN_POINT('',(0.,0.,0.));
#306=CARTESIAN_POINT('',(0.,0.,-20.7033942010007));
#307=CARTESIAN_POINT('',(0.,0.,-38.));
#308=CARTESIAN_POINT('',(0.,0.,-21.));
#309=CARTESIAN_POINT('',(-1.455,0.,-21.));
#310=CARTESIAN_POINT('',(0.,0.,-21.));
#311=CARTESIAN_POINT('',(0.,0.,5.42101086242752E-17));
#312=CARTESIAN_POINT('',(-1.32679491924311,0.,5.42101086242752E-17));
#313=CARTESIAN_POINT('',(0.,0.,5.42101086242752E-17));
#314=CARTESIAN_POINT('',(0.,0.,-0.300000000000002));
#315=CARTESIAN_POINT('',(-1.5,0.,-0.300000000000002));
#316=CARTESIAN_POINT('',(0.,0.,-0.300000000000002));
#317=CARTESIAN_POINT('',(0.,0.,-20.7033942010007));
#318=CARTESIAN_POINT('',(-1.5,0.,-20.7033942010007));
#319=CARTESIAN_POINT('',(0.,0.,0.));
#320=CARTESIAN_POINT('',(0.,0.,-21.));
#321=CARTESIAN_POINT('',(0.,0.,-21.));
#322=CARTESIAN_POINT('',(-1.455,0.,-21.));
#323=CARTESIAN_POINT('',(0.,0.,-21.));
#324=CARTESIAN_POINT('',(0.,0.,-38.));
#325=CARTESIAN_POINT('',(0.,0.,-37.3215223573845));
#326=CARTESIAN_POINT('',(-1.455,0.,-37.3215223573845));
#327=CARTESIAN_POINT('',(0.,0.,-37.3215223573845));
#328=CARTESIAN_POINT('',(0.,0.,0.));
#329=MECHANICAL_DESIGN_GEOMETRIC_PRESENTATION_REPRESENTATION('',(#169,#170,
#171,#172,#173,#174,#175,#176,#177,#178,#179,#180,#181,#182,#183,#184,#185,
#186),#330);
#330=(
GEOMETRIC_REPRESENTATION_CONTEXT(3)
GLOBAL_UNCERTAINTY_ASSIGNED_CONTEXT((#331))
GLOBAL_UNIT_ASSIGNED_CONTEXT((#337,#333,#332))
REPRESENTATION_CONTEXT('1722250688647','TOP_LEVEL_ASSEMBLY_PART')
);
#331=UNCERTAINTY_MEASURE_WITH_UNIT(LENGTH_MEASURE(2.E-5),#337,
'DISTANCE_ACCURACY_VALUE','Maximum Tolerance applied to model');
#332=(
NAMED_UNIT(*)
SI_UNIT($,.STERADIAN.)
SOLID_ANGLE_UNIT()
);
#333=(
CONVERSION_BASED_UNIT('DEGREE',#335)
NAMED_UNIT(#334)
PLANE_ANGLE_UNIT()
);
#334=DIMENSIONAL_EXPONENTS(0.,0.,0.,0.,0.,0.,0.);
#335=PLANE_ANGLE_MEASURE_WITH_UNIT(PLANE_ANGLE_MEASURE(0.0174532925),#336);
#336=(
NAMED_UNIT(*)
PLANE_ANGLE_UNIT()
SI_UNIT($,.RADIAN.)
);
#337=(
LENGTH_UNIT()
NAMED_UNIT(*)
SI_UNIT(.MILLI.,.METRE.)
);
ENDSEC;
END-ISO-10303-21;
