ISO-10303-21;
HEADER;
/* Generated by software containing ST-Developer
 * from STEP Tools, Inc. (www.steptools.com) 
 */
/* OPTION: using custom schema-name function */

FILE_DESCRIPTION(
/* description */ (''),
/* implementation_level */ '2;1');

FILE_NAME(
/* name */ '1722250531949.stp',
/* time_stamp */ '2024-07-29T11:55:37+01:00',
/* author */ (''),
/* organization */ ('SMS'),
/* preprocessor_version */ 'ST-DEVELOPER v16.7',
/* originating_system */ 'SIEMENS PLM Software NX 12.0',
/* authorisation */ '');

FILE_SCHEMA (('AUTOMOTIVE_DESIGN { 1 0 10303 214 3 1 1 1 }'));
ENDSEC;

DATA;
#10=CONSTRUCTIVE_GEOMETRY_REPRESENTATION_RELATIONSHIP(
'supplemental geometry','',#26,#11);
#11=CONSTRUCTIVE_GEOMETRY_REPRESENTATION('supplemental geometry',(#228,
#229,#230),#350);
#12=GEOMETRICALLY_BOUNDED_WIREFRAME_SHAPE_REPRESENTATION(
'462.1-2780-140A0-XM H10F-None',(#27),#350);
#13=SHAPE_REPRESENTATION_RELATIONSHIP('None',
'relationship between 462.1-2780-140A0-XM H10F-None and 462.1-2780-140
A0-XM H10F-None',#26,#15);
#14=SHAPE_REPRESENTATION_RELATIONSHIP('None',
'relationship between 462.1-2780-140A0-XM H10F-None and 462.1-2780-140
A0-XM H10F-None',#26,#12);
#15=ADVANCED_BREP_SHAPE_REPRESENTATION('462.1-2780-140A0-XM H10F-None',
(#39,#40),#350);
#16=SHAPE_DEFINITION_REPRESENTATION(#17,#26);
#17=PRODUCT_DEFINITION_SHAPE('','',#18);
#18=PRODUCT_DEFINITION(' ','',#20,#19);
#19=PRODUCT_DEFINITION_CONTEXT('part definition',#25,'design');
#20=PRODUCT_DEFINITION_FORMATION_WITH_SPECIFIED_SOURCE(' ',' ',#22,
 .NOT_KNOWN.);
#21=PRODUCT_RELATED_PRODUCT_CATEGORY('part','',(#22));
#22=PRODUCT('462.1-2780-140A0-XM H10F','462.1-2780-140A0-XM H10F',' ',(#23));
#23=PRODUCT_CONTEXT(' ',#25,'mechanical');
#24=APPLICATION_PROTOCOL_DEFINITION('international standard',
'automotive_design',2010,#25);
#25=APPLICATION_CONTEXT(
'core data for automotive mechanical design processes');
#26=SHAPE_REPRESENTATION('462.1-2780-140A0-XM H10F-None',(#226),#350);
#27=GEOMETRIC_CURVE_SET('None',(#297,#298,#299,#300,#153,#154,#155,#156,
#157,#158,#159,#160,#119));
#28=VERTEX_LOOP('',#110);
#29=SURFACE_STYLE_USAGE(.BOTH.,#31);
#30=SURFACE_STYLE_USAGE(.BOTH.,#32);
#31=SURFACE_SIDE_STYLE('',(#33));
#32=SURFACE_SIDE_STYLE('',(#34));
#33=SURFACE_STYLE_FILL_AREA(#35);
#34=SURFACE_STYLE_FILL_AREA(#36);
#35=FILL_AREA_STYLE('',(#37));
#36=FILL_AREA_STYLE('',(#38));
#37=FILL_AREA_STYLE_COLOUR('',#176);
#38=FILL_AREA_STYLE_COLOUR('',#177);
#39=MANIFOLD_SOLID_BREP('NOCUT',#41);
#40=MANIFOLD_SOLID_BREP('CUT',#42);
#41=CLOSED_SHELL('',(#61,#62,#63,#64,#65,#66));
#42=CLOSED_SHELL('',(#67,#68,#69));
#43=TOROIDAL_SURFACE('',#240,2.39,1.);
#44=CYLINDRICAL_SURFACE('',#238,1.5);
#45=CYLINDRICAL_SURFACE('',#241,1.39);
#46=CYLINDRICAL_SURFACE('',#246,1.39);
#47=CONICAL_SURFACE('',#236,1.5,29.9999999999999);
#48=CONICAL_SURFACE('',#245,1.39,65.0000000000001);
#49=FACE_BOUND('',#78,.T.);
#50=FACE_BOUND('',#79,.T.);
#51=FACE_BOUND('',#80,.T.);
#52=FACE_BOUND('',#81,.T.);
#53=FACE_BOUND('',#82,.T.);
#54=FACE_BOUND('',#83,.T.);
#55=FACE_BOUND('',#84,.T.);
#56=FACE_BOUND('',#85,.T.);
#57=FACE_BOUND('',#28,.T.);
#58=FACE_BOUND('',#87,.T.);
#59=FACE_BOUND('',#88,.T.);
#60=FACE_BOUND('',#89,.T.);
#61=ADVANCED_FACE('',(#73),#70,.T.);
#62=ADVANCED_FACE('',(#74),#71,.F.);
#63=ADVANCED_FACE('',(#49,#50),#47,.T.);
#64=ADVANCED_FACE('',(#51,#52),#44,.T.);
#65=ADVANCED_FACE('',(#53,#54),#43,.F.);
#66=ADVANCED_FACE('',(#55,#56),#45,.T.);
#67=ADVANCED_FACE('',(#75),#72,.F.);
#68=ADVANCED_FACE('',(#57,#58),#48,.T.);
#69=ADVANCED_FACE('',(#59,#60),#46,.T.);
#70=PLANE('',#232);
#71=PLANE('',#234);
#72=PLANE('',#243);
#73=FACE_OUTER_BOUND('',#76,.T.);
#74=FACE_OUTER_BOUND('',#77,.T.);
#75=FACE_OUTER_BOUND('',#86,.T.);
#76=EDGE_LOOP('',(#90));
#77=EDGE_LOOP('',(#91));
#78=EDGE_LOOP('',(#92));
#79=EDGE_LOOP('',(#93));
#80=EDGE_LOOP('',(#94));
#81=EDGE_LOOP('',(#95));
#82=EDGE_LOOP('',(#96));
#83=EDGE_LOOP('',(#97));
#84=EDGE_LOOP('',(#98));
#85=EDGE_LOOP('',(#99));
#86=EDGE_LOOP('',(#100));
#87=EDGE_LOOP('',(#101));
#88=EDGE_LOOP('',(#102));
#89=EDGE_LOOP('',(#103));
#90=ORIENTED_EDGE('',*,*,#112,.T.);
#91=ORIENTED_EDGE('',*,*,#113,.F.);
#92=ORIENTED_EDGE('',*,*,#113,.T.);
#93=ORIENTED_EDGE('',*,*,#114,.F.);
#94=ORIENTED_EDGE('',*,*,#114,.T.);
#95=ORIENTED_EDGE('',*,*,#115,.F.);
#96=ORIENTED_EDGE('',*,*,#115,.T.);
#97=ORIENTED_EDGE('',*,*,#116,.F.);
#98=ORIENTED_EDGE('',*,*,#116,.T.);
#99=ORIENTED_EDGE('',*,*,#112,.F.);
#100=ORIENTED_EDGE('',*,*,#117,.F.);
#101=ORIENTED_EDGE('',*,*,#118,.T.);
#102=ORIENTED_EDGE('',*,*,#118,.F.);
#103=ORIENTED_EDGE('',*,*,#117,.T.);
#104=VERTEX_POINT('',#326);
#105=VERTEX_POINT('',#329);
#106=VERTEX_POINT('',#332);
#107=VERTEX_POINT('',#335);
#108=VERTEX_POINT('',#338);
#109=VERTEX_POINT('',#342);
#110=VERTEX_POINT('',#344);
#111=VERTEX_POINT('',#346);
#112=EDGE_CURVE('',#104,#104,#121,.T.);
#113=EDGE_CURVE('',#105,#105,#122,.T.);
#114=EDGE_CURVE('',#106,#106,#123,.T.);
#115=EDGE_CURVE('',#107,#107,#124,.T.);
#116=EDGE_CURVE('',#108,#108,#125,.T.);
#117=EDGE_CURVE('',#109,#109,#126,.T.);
#118=EDGE_CURVE('',#111,#111,#127,.T.);
#119=B_SPLINE_CURVE_WITH_KNOTS('CUTTING PART LINE',3,(#309,#310,#311,#312,
#313,#314,#315,#316,#317,#318,#319,#320,#321),.UNSPECIFIED.,.T.,.F.,(4,
3,3,3,4),(0.,0.449883400269125,0.492921778200106,0.960993982938254,1.),
 .UNSPECIFIED.);
#120=CIRCLE('Arc1',#227,1.);
#121=CIRCLE('',#231,1.39);
#122=CIRCLE('',#233,1.32679491924311);
#123=CIRCLE('',#235,1.5);
#124=CIRCLE('',#237,1.5);
#125=CIRCLE('',#239,1.39);
#126=CIRCLE('',#242,1.39);
#127=CIRCLE('',#244,1.39);
#128=INVISIBILITY((#179));
#129=CURVE_STYLE('',#141,POSITIVE_LENGTH_MEASURE(0.18),#224);
#130=CURVE_STYLE('',#142,POSITIVE_LENGTH_MEASURE(0.18),#224);
#131=CURVE_STYLE('',#143,POSITIVE_LENGTH_MEASURE(0.18),#224);
#132=CURVE_STYLE('',#144,POSITIVE_LENGTH_MEASURE(0.18),#224);
#133=CURVE_STYLE('',#145,POSITIVE_LENGTH_MEASURE(0.18),#224);
#134=CURVE_STYLE('',#146,POSITIVE_LENGTH_MEASURE(0.18),#224);
#135=CURVE_STYLE('',#147,POSITIVE_LENGTH_MEASURE(0.18),#224);
#136=CURVE_STYLE('',#148,POSITIVE_LENGTH_MEASURE(0.18),#224);
#137=CURVE_STYLE('',#149,POSITIVE_LENGTH_MEASURE(0.18),#225);
#138=CURVE_STYLE('',#150,POSITIVE_LENGTH_MEASURE(0.18),#175);
#139=CURVE_STYLE('',#151,POSITIVE_LENGTH_MEASURE(0.18),#175);
#140=CURVE_STYLE('',#152,POSITIVE_LENGTH_MEASURE(0.18),#175);
#141=DRAUGHTING_PRE_DEFINED_CURVE_FONT('continuous');
#142=DRAUGHTING_PRE_DEFINED_CURVE_FONT('continuous');
#143=DRAUGHTING_PRE_DEFINED_CURVE_FONT('continuous');
#144=DRAUGHTING_PRE_DEFINED_CURVE_FONT('continuous');
#145=DRAUGHTING_PRE_DEFINED_CURVE_FONT('continuous');
#146=DRAUGHTING_PRE_DEFINED_CURVE_FONT('continuous');
#147=DRAUGHTING_PRE_DEFINED_CURVE_FONT('continuous');
#148=DRAUGHTING_PRE_DEFINED_CURVE_FONT('continuous');
#149=DRAUGHTING_PRE_DEFINED_CURVE_FONT('continuous');
#150=DRAUGHTING_PRE_DEFINED_CURVE_FONT('continuous');
#151=DRAUGHTING_PRE_DEFINED_CURVE_FONT('continuous');
#152=DRAUGHTING_PRE_DEFINED_CURVE_FONT('continuous');
#153=TRIMMED_CURVE('Line1',#161,(PARAMETER_VALUE(0.)),(
PARAMETER_VALUE(1.)),.T.,.PARAMETER.);
#154=TRIMMED_CURVE('Line3',#162,(PARAMETER_VALUE(0.)),(
PARAMETER_VALUE(1.)),.T.,.PARAMETER.);
#155=TRIMMED_CURVE('Line6',#163,(PARAMETER_VALUE(0.)),(
PARAMETER_VALUE(1.)),.T.,.PARAMETER.);
#156=TRIMMED_CURVE('Line7',#164,(PARAMETER_VALUE(0.)),(
PARAMETER_VALUE(1.)),.T.,.PARAMETER.);
#157=TRIMMED_CURVE('Line8',#165,(PARAMETER_VALUE(0.)),(
PARAMETER_VALUE(1.)),.T.,.PARAMETER.);
#158=TRIMMED_CURVE('Line9',#166,(PARAMETER_VALUE(0.)),(
PARAMETER_VALUE(1.)),.T.,.PARAMETER.);
#159=TRIMMED_CURVE('Line11',#167,(PARAMETER_VALUE(0.)),(
PARAMETER_VALUE(1.)),.T.,.PARAMETER.);
#160=TRIMMED_CURVE('Arc1',#120,(PARAMETER_VALUE(62.8732468827259)),(
PARAMETER_VALUE(90.)),.T.,.PARAMETER.);
#161=LINE('Line1',#301,#168);
#162=LINE('Line3',#302,#169);
#163=LINE('Line6',#303,#170);
#164=LINE('Line7',#304,#171);
#165=LINE('Line8',#305,#172);
#166=LINE('Line9',#306,#173);
#167=LINE('Line11',#307,#174);
#168=VECTOR('',#249,20.2440394753929);
#169=VECTOR('',#250,0.32);
#170=VECTOR('',#251,16.0318323551646);
#171=VECTOR('',#252,1.53369530735787);
#172=VECTOR('',#253,16.68);
#173=VECTOR('',#254,1.39);
#174=VECTOR('',#255,0.346410161513776);
#175=COLOUR_RGB('Medium Maroon',0.6,0.4,0.4);
#176=COLOUR_RGB('Medium Gray',0.501960784313725,0.501960784313725,0.501960784313725);
#177=COLOUR_RGB('Light Gray',0.8,0.8,0.8);
#178=PRESENTATION_LAYER_ASSIGNMENT('1','Layer 1',(#297,#298,#299,#300,#119,
#228,#229,#230,#39,#40));
#179=PRESENTATION_LAYER_ASSIGNMENT('40','Layer 40',(#153,#154,#155,#156,
#157,#158,#159,#160));
#180=STYLED_ITEM('',(#198),#297);
#181=STYLED_ITEM('',(#199),#298);
#182=STYLED_ITEM('',(#200),#299);
#183=STYLED_ITEM('',(#201),#300);
#184=STYLED_ITEM('',(#202),#153);
#185=STYLED_ITEM('',(#203),#154);
#186=STYLED_ITEM('',(#204),#155);
#187=STYLED_ITEM('',(#205),#156);
#188=STYLED_ITEM('',(#206),#157);
#189=STYLED_ITEM('',(#207),#158);
#190=STYLED_ITEM('',(#208),#159);
#191=STYLED_ITEM('',(#209),#160);
#192=STYLED_ITEM('',(#210),#119);
#193=STYLED_ITEM('',(#211),#228);
#194=STYLED_ITEM('',(#212),#229);
#195=STYLED_ITEM('',(#213),#230);
#196=STYLED_ITEM('',(#214),#39);
#197=STYLED_ITEM('',(#215),#40);
#198=PRESENTATION_STYLE_ASSIGNMENT((#216));
#199=PRESENTATION_STYLE_ASSIGNMENT((#217));
#200=PRESENTATION_STYLE_ASSIGNMENT((#218));
#201=PRESENTATION_STYLE_ASSIGNMENT((#219));
#202=PRESENTATION_STYLE_ASSIGNMENT((#129));
#203=PRESENTATION_STYLE_ASSIGNMENT((#130));
#204=PRESENTATION_STYLE_ASSIGNMENT((#131));
#205=PRESENTATION_STYLE_ASSIGNMENT((#132));
#206=PRESENTATION_STYLE_ASSIGNMENT((#133));
#207=PRESENTATION_STYLE_ASSIGNMENT((#134));
#208=PRESENTATION_STYLE_ASSIGNMENT((#135));
#209=PRESENTATION_STYLE_ASSIGNMENT((#136));
#210=PRESENTATION_STYLE_ASSIGNMENT((#137));
#211=PRESENTATION_STYLE_ASSIGNMENT((#138));
#212=PRESENTATION_STYLE_ASSIGNMENT((#139));
#213=PRESENTATION_STYLE_ASSIGNMENT((#140));
#214=PRESENTATION_STYLE_ASSIGNMENT((#29));
#215=PRESENTATION_STYLE_ASSIGNMENT((#30));
#216=POINT_STYLE('',#220,POSITIVE_LENGTH_MEASURE(3.),#224);
#217=POINT_STYLE('',#221,POSITIVE_LENGTH_MEASURE(3.),#175);
#218=POINT_STYLE('',#222,POSITIVE_LENGTH_MEASURE(3.),#175);
#219=POINT_STYLE('',#223,POSITIVE_LENGTH_MEASURE(3.),#175);
#220=PRE_DEFINED_POINT_MARKER_SYMBOL('plus');
#221=PRE_DEFINED_POINT_MARKER_SYMBOL('plus');
#222=PRE_DEFINED_POINT_MARKER_SYMBOL('plus');
#223=PRE_DEFINED_POINT_MARKER_SYMBOL('plus');
#224=DRAUGHTING_PRE_DEFINED_COLOUR('white');
#225=DRAUGHTING_PRE_DEFINED_COLOUR('blue');
#226=AXIS2_PLACEMENT_3D('',#296,#247,#248);
#227=AXIS2_PLACEMENT_3D('',#308,#256,#257);
#228=AXIS2_PLACEMENT_3D('PCS',#322,#258,#259);
#229=AXIS2_PLACEMENT_3D('MCS',#323,#260,#261);
#230=AXIS2_PLACEMENT_3D('CIP',#324,#262,#263);
#231=AXIS2_PLACEMENT_3D('',#325,#264,#265);
#232=AXIS2_PLACEMENT_3D('',#327,#266,#267);
#233=AXIS2_PLACEMENT_3D('',#328,#268,#269);
#234=AXIS2_PLACEMENT_3D('',#330,#270,#271);
#235=AXIS2_PLACEMENT_3D('',#331,#272,#273);
#236=AXIS2_PLACEMENT_3D('',#333,#274,#275);
#237=AXIS2_PLACEMENT_3D('',#334,#276,#277);
#238=AXIS2_PLACEMENT_3D('',#336,#278,#279);
#239=AXIS2_PLACEMENT_3D('',#337,#280,#281);
#240=AXIS2_PLACEMENT_3D('',#339,#282,#283);
#241=AXIS2_PLACEMENT_3D('',#340,#284,#285);
#242=AXIS2_PLACEMENT_3D('',#341,#286,#287);
#243=AXIS2_PLACEMENT_3D('',#343,#288,#289);
#244=AXIS2_PLACEMENT_3D('',#345,#290,#291);
#245=AXIS2_PLACEMENT_3D('',#347,#292,#293);
#246=AXIS2_PLACEMENT_3D('',#348,#294,#295);
#247=DIRECTION('',(0.,0.,1.));
#248=DIRECTION('',(1.,0.,0.));
#249=DIRECTION('',(1.31620730256883E-16,0.,-1.));
#250=DIRECTION('',(0.,0.,-1.));
#251=DIRECTION('',(1.24652092165966E-16,0.,-1.));
#252=DIRECTION('',(-0.906307787036651,0.,-0.422618261740698));
#253=DIRECTION('',(0.,0.,1.));
#254=DIRECTION('',(1.,0.,0.));
#255=DIRECTION('',(-0.5,0.,0.866025403784438));
#256=DIRECTION('',(0.,-1.,0.));
#257=DIRECTION('',(0.,0.,1.));
#258=DIRECTION('',(0.,0.,1.));
#259=DIRECTION('',(1.,0.,0.));
#260=DIRECTION('',(0.,0.,1.));
#261=DIRECTION('',(1.,0.,0.));
#262=DIRECTION('',(0.,0.,1.));
#263=DIRECTION('',(1.,0.,0.));
#264=DIRECTION('',(0.,0.,-1.));
#265=DIRECTION('',(-1.,0.,0.));
#266=DIRECTION('',(0.,0.,-1.));
#267=DIRECTION('',(-1.,0.,0.));
#268=DIRECTION('',(0.,0.,-1.));
#269=DIRECTION('',(-1.,0.,0.));
#270=DIRECTION('',(0.,0.,-1.));
#271=DIRECTION('',(-1.,0.,0.));
#272=DIRECTION('',(0.,0.,-1.));
#273=DIRECTION('',(-1.,0.,0.));
#274=DIRECTION('',(0.,0.,-1.));
#275=DIRECTION('',(-1.,0.,5.99368634104767E-17));
#276=DIRECTION('',(0.,0.,-1.));
#277=DIRECTION('',(-1.,0.,0.));
#278=DIRECTION('',(0.,0.,-1.));
#279=DIRECTION('',(-1.,0.,0.));
#280=DIRECTION('',(0.,0.,-1.));
#281=DIRECTION('',(-1.,0.,0.));
#282=DIRECTION('',(0.,0.,-1.));
#283=DIRECTION('',(-1.,0.,0.));
#284=DIRECTION('',(0.,0.,-1.));
#285=DIRECTION('',(-1.,0.,0.));
#286=DIRECTION('',(0.,0.,-1.));
#287=DIRECTION('',(-1.,0.,0.));
#288=DIRECTION('',(0.,0.,-1.));
#289=DIRECTION('',(-1.,0.,0.));
#290=DIRECTION('',(0.,0.,-1.));
#291=DIRECTION('',(-1.,0.,0.));
#292=DIRECTION('',(0.,0.,1.));
#293=DIRECTION('',(1.,0.,-1.94013808517685E-17));
#294=DIRECTION('',(0.,0.,-1.));
#295=DIRECTION('',(-1.,0.,0.));
#296=CARTESIAN_POINT('',(0.,0.,0.));
#297=CARTESIAN_POINT('CRP',(1.39,0.,-37.3518323551646));
#298=CARTESIAN_POINT('',(0.,0.,0.));
#299=CARTESIAN_POINT('',(0.,0.,-20.5440394753929));
#300=CARTESIAN_POINT('',(0.,0.,-38.));
#301=CARTESIAN_POINT('',(1.5,0.,-0.3));
#302=CARTESIAN_POINT('',(1.39,0.,-21.));
#303=CARTESIAN_POINT('',(1.39,0.,-21.32));
#304=CARTESIAN_POINT('',(1.39,0.,-37.3518323551646));
#305=CARTESIAN_POINT('',(0.,0.,-38.));
#306=CARTESIAN_POINT('',(0.,0.,-21.32));
#307=CARTESIAN_POINT('',(1.5,0.,-0.3));
#308=CARTESIAN_POINT('',(2.39,0.,-21.));
#309=CARTESIAN_POINT('',(1.39,0.,-21.32));
#310=CARTESIAN_POINT('',(1.39,0.,-26.6639441183882));
#311=CARTESIAN_POINT('',(1.39,0.,-32.0078882367764));
#312=CARTESIAN_POINT('',(1.39,0.,-37.3518323551646));
#313=CARTESIAN_POINT('',(0.926666666666669,0.,-37.5678882367764));
#314=CARTESIAN_POINT('',(0.463333333333334,0.,-37.7839441183882));
#315=CARTESIAN_POINT('',(0.,0.,-38.));
#316=CARTESIAN_POINT('',(0.,0.,-32.44));
#317=CARTESIAN_POINT('',(0.,0.,-26.88));
#318=CARTESIAN_POINT('',(0.,0.,-21.32));
#319=CARTESIAN_POINT('',(0.463333333333334,0.,-21.32));
#320=CARTESIAN_POINT('',(0.926666666666667,0.,-21.32));
#321=CARTESIAN_POINT('',(1.39,0.,-21.32));
#322=CARTESIAN_POINT('',(0.,0.,0.));
#323=CARTESIAN_POINT('',(0.,0.,-20.5440394753929));
#324=CARTESIAN_POINT('',(0.,0.,-38.));
#325=CARTESIAN_POINT('',(0.,0.,-21.32));
#326=CARTESIAN_POINT('',(-1.39,0.,-21.32));
#327=CARTESIAN_POINT('',(0.,0.,-21.32));
#328=CARTESIAN_POINT('',(0.,0.,5.42101086242752E-17));
#329=CARTESIAN_POINT('',(-1.32679491924311,0.,5.42101086242752E-17));
#330=CARTESIAN_POINT('',(0.,0.,5.42101086242752E-17));
#331=CARTESIAN_POINT('',(0.,0.,-0.300000000000002));
#332=CARTESIAN_POINT('',(-1.5,0.,-0.300000000000002));
#333=CARTESIAN_POINT('',(0.,0.,-0.300000000000002));
#334=CARTESIAN_POINT('',(0.,0.,-20.5440394753929));
#335=CARTESIAN_POINT('',(-1.5,0.,-20.5440394753929));
#336=CARTESIAN_POINT('',(0.,0.,0.));
#337=CARTESIAN_POINT('',(0.,0.,-21.));
#338=CARTESIAN_POINT('',(-1.39,0.,-21.));
#339=CARTESIAN_POINT('',(0.,0.,-21.));
#340=CARTESIAN_POINT('',(0.,0.,0.));
#341=CARTESIAN_POINT('',(0.,0.,-21.32));
#342=CARTESIAN_POINT('',(-1.39,0.,-21.32));
#343=CARTESIAN_POINT('',(0.,0.,-21.32));
#344=CARTESIAN_POINT('',(-2.16840434497101E-16,0.,-38.));
#345=CARTESIAN_POINT('',(0.,0.,-37.3518323551646));
#346=CARTESIAN_POINT('',(-1.39,0.,-37.3518323551646));
#347=CARTESIAN_POINT('',(0.,0.,-37.3518323551646));
#348=CARTESIAN_POINT('',(0.,0.,0.));
#349=MECHANICAL_DESIGN_GEOMETRIC_PRESENTATION_REPRESENTATION('',(#180,#181,
#182,#183,#184,#185,#186,#187,#188,#189,#190,#191,#192,#193,#194,#195,#196,
#197),#350);
#350=(
GEOMETRIC_REPRESENTATION_CONTEXT(3)
GLOBAL_UNCERTAINTY_ASSIGNED_CONTEXT((#351))
GLOBAL_UNIT_ASSIGNED_CONTEXT((#357,#353,#352))
REPRESENTATION_CONTEXT('1722250531949','TOP_LEVEL_ASSEMBLY_PART')
);
#351=UNCERTAINTY_MEASURE_WITH_UNIT(LENGTH_MEASURE(2.E-5),#357,
'DISTANCE_ACCURACY_VALUE','Maximum Tolerance applied to model');
#352=(
NAMED_UNIT(*)
SI_UNIT($,.STERADIAN.)
SOLID_ANGLE_UNIT()
);
#353=(
CONVERSION_BASED_UNIT('DEGREE',#355)
NAMED_UNIT(#354)
PLANE_ANGLE_UNIT()
);
#354=DIMENSIONAL_EXPONENTS(0.,0.,0.,0.,0.,0.,0.);
#355=PLANE_ANGLE_MEASURE_WITH_UNIT(PLANE_ANGLE_MEASURE(0.0174532925),#356);
#356=(
NAMED_UNIT(*)
PLANE_ANGLE_UNIT()
SI_UNIT($,.RADIAN.)
);
#357=(
LENGTH_UNIT()
NAMED_UNIT(*)
SI_UNIT(.MILLI.,.METRE.)
);
ENDSEC;
END-ISO-10303-21;
