ISO-10303-21;
HEADER;
/* Generated by software containing ST-Developer
 * from STEP Tools, Inc. (www.steptools.com) 
 */
/* OPTION: using custom schema-name function */

FILE_DESCRIPTION(
/* description */ (''),
/* implementation_level */ '2;1');

FILE_NAME(
/* name */ '1722250170898.stp',
/* time_stamp */ '2024-07-29T11:49:36+01:00',
/* author */ (''),
/* organization */ ('SMS'),
/* preprocessor_version */ 'ST-DEVELOPER v16.7',
/* originating_system */ 'SIEMENS PLM Software NX 12.0',
/* authorisation */ '');

FILE_SCHEMA (('AUTOMOTIVE_DESIGN { 1 0 10303 214 3 1 1 1 }'));
ENDSEC;

DATA;
#10=CONSTRUCTIVE_GEOMETRY_REPRESENTATION_RELATIONSHIP(
'supplemental geometry','',#26,#11);
#11=CONSTRUCTIVE_GEOMETRY_REPRESENTATION('supplemental geometry',(#235,
#236,#237),#359);
#12=GEOMETRICALLY_BOUNDED_WIREFRAME_SHAPE_REPRESENTATION(
'462.1-2480-125A0-XM H10F-None',(#27),#359);
#13=SHAPE_REPRESENTATION_RELATIONSHIP('None',
'relationship between 462.1-2480-125A0-XM H10F-None and 462.1-2480-125
A0-XM H10F-None',#26,#15);
#14=SHAPE_REPRESENTATION_RELATIONSHIP('None',
'relationship between 462.1-2480-125A0-XM H10F-None and 462.1-2480-125
A0-XM H10F-None',#26,#12);
#15=ADVANCED_BREP_SHAPE_REPRESENTATION('462.1-2480-125A0-XM H10F-None',
(#39,#40),#359);
#16=SHAPE_DEFINITION_REPRESENTATION(#17,#26);
#17=PRODUCT_DEFINITION_SHAPE('','',#18);
#18=PRODUCT_DEFINITION(' ','',#20,#19);
#19=PRODUCT_DEFINITION_CONTEXT('part definition',#25,'design');
#20=PRODUCT_DEFINITION_FORMATION_WITH_SPECIFIED_SOURCE(' ',' ',#22,
 .NOT_KNOWN.);
#21=PRODUCT_RELATED_PRODUCT_CATEGORY('part','',(#22));
#22=PRODUCT('462.1-2480-125A0-XM H10F','462.1-2480-125A0-XM H10F',' ',(#23));
#23=PRODUCT_CONTEXT(' ',#25,'mechanical');
#24=APPLICATION_PROTOCOL_DEFINITION('international standard',
'automotive_design',2010,#25);
#25=APPLICATION_CONTEXT(
'core data for automotive mechanical design processes');
#26=SHAPE_REPRESENTATION('462.1-2480-125A0-XM H10F-None',(#233),#359);
#27=GEOMETRIC_CURVE_SET('None',(#305,#306,#307,#308,#155,#156,#157,#158,
#159,#160,#161,#162,#163,#119));
#28=VERTEX_LOOP('',#110);
#29=SURFACE_STYLE_USAGE(.BOTH.,#31);
#30=SURFACE_STYLE_USAGE(.BOTH.,#32);
#31=SURFACE_SIDE_STYLE('',(#33));
#32=SURFACE_SIDE_STYLE('',(#34));
#33=SURFACE_STYLE_FILL_AREA(#35);
#34=SURFACE_STYLE_FILL_AREA(#36);
#35=FILL_AREA_STYLE('',(#37));
#36=FILL_AREA_STYLE('',(#38));
#37=FILL_AREA_STYLE_COLOUR('',#182);
#38=FILL_AREA_STYLE_COLOUR('',#183);
#39=MANIFOLD_SOLID_BREP('NOCUT',#41);
#40=MANIFOLD_SOLID_BREP('CUT',#42);
#41=CLOSED_SHELL('',(#61,#62,#63,#64,#65,#66));
#42=CLOSED_SHELL('',(#67,#68,#69));
#43=TOROIDAL_SURFACE('',#248,2.24,1.);
#44=CYLINDRICAL_SURFACE('',#245,1.5);
#45=CYLINDRICAL_SURFACE('',#253,1.24);
#46=CONICAL_SURFACE('',#243,1.5,29.9999999999999);
#47=CONICAL_SURFACE('',#247,1.37397459621556,30.0000000000002);
#48=CONICAL_SURFACE('',#252,1.24,65.0000000000001);
#49=FACE_BOUND('',#78,.T.);
#50=FACE_BOUND('',#79,.T.);
#51=FACE_BOUND('',#80,.T.);
#52=FACE_BOUND('',#81,.T.);
#53=FACE_BOUND('',#82,.T.);
#54=FACE_BOUND('',#83,.T.);
#55=FACE_BOUND('',#84,.T.);
#56=FACE_BOUND('',#85,.T.);
#57=FACE_BOUND('',#28,.T.);
#58=FACE_BOUND('',#87,.T.);
#59=FACE_BOUND('',#88,.T.);
#60=FACE_BOUND('',#89,.T.);
#61=ADVANCED_FACE('',(#73),#70,.T.);
#62=ADVANCED_FACE('',(#74),#71,.F.);
#63=ADVANCED_FACE('',(#49,#50),#46,.T.);
#64=ADVANCED_FACE('',(#51,#52),#44,.T.);
#65=ADVANCED_FACE('',(#53,#54),#47,.T.);
#66=ADVANCED_FACE('',(#55,#56),#43,.F.);
#67=ADVANCED_FACE('',(#75),#72,.F.);
#68=ADVANCED_FACE('',(#57,#58),#48,.T.);
#69=ADVANCED_FACE('',(#59,#60),#45,.T.);
#70=PLANE('',#239);
#71=PLANE('',#241);
#72=PLANE('',#250);
#73=FACE_OUTER_BOUND('',#76,.T.);
#74=FACE_OUTER_BOUND('',#77,.T.);
#75=FACE_OUTER_BOUND('',#86,.T.);
#76=EDGE_LOOP('',(#90));
#77=EDGE_LOOP('',(#91));
#78=EDGE_LOOP('',(#92));
#79=EDGE_LOOP('',(#93));
#80=EDGE_LOOP('',(#94));
#81=EDGE_LOOP('',(#95));
#82=EDGE_LOOP('',(#96));
#83=EDGE_LOOP('',(#97));
#84=EDGE_LOOP('',(#98));
#85=EDGE_LOOP('',(#99));
#86=EDGE_LOOP('',(#100));
#87=EDGE_LOOP('',(#101));
#88=EDGE_LOOP('',(#102));
#89=EDGE_LOOP('',(#103));
#90=ORIENTED_EDGE('',*,*,#112,.T.);
#91=ORIENTED_EDGE('',*,*,#113,.F.);
#92=ORIENTED_EDGE('',*,*,#113,.T.);
#93=ORIENTED_EDGE('',*,*,#114,.F.);
#94=ORIENTED_EDGE('',*,*,#114,.T.);
#95=ORIENTED_EDGE('',*,*,#115,.F.);
#96=ORIENTED_EDGE('',*,*,#115,.T.);
#97=ORIENTED_EDGE('',*,*,#116,.F.);
#98=ORIENTED_EDGE('',*,*,#116,.T.);
#99=ORIENTED_EDGE('',*,*,#112,.F.);
#100=ORIENTED_EDGE('',*,*,#117,.F.);
#101=ORIENTED_EDGE('',*,*,#118,.T.);
#102=ORIENTED_EDGE('',*,*,#118,.F.);
#103=ORIENTED_EDGE('',*,*,#117,.T.);
#104=VERTEX_POINT('',#335);
#105=VERTEX_POINT('',#338);
#106=VERTEX_POINT('',#341);
#107=VERTEX_POINT('',#344);
#108=VERTEX_POINT('',#347);
#109=VERTEX_POINT('',#351);
#110=VERTEX_POINT('',#353);
#111=VERTEX_POINT('',#355);
#112=EDGE_CURVE('',#104,#104,#121,.T.);
#113=EDGE_CURVE('',#105,#105,#122,.T.);
#114=EDGE_CURVE('',#106,#106,#123,.T.);
#115=EDGE_CURVE('',#107,#107,#124,.T.);
#116=EDGE_CURVE('',#108,#108,#125,.T.);
#117=EDGE_CURVE('',#109,#109,#126,.T.);
#118=EDGE_CURVE('',#111,#111,#127,.T.);
#119=B_SPLINE_CURVE_WITH_KNOTS('CUTTING PART LINE',3,(#318,#319,#320,#321,
#322,#323,#324,#325,#326,#327,#328,#329,#330),.UNSPECIFIED.,.T.,.F.,(4,
3,3,3,4),(0.,0.446946160436724,0.492506936906521,0.95870791350158,1.),
 .UNSPECIFIED.);
#120=CIRCLE('Arc1',#234,1.);
#121=CIRCLE('',#238,1.24);
#122=CIRCLE('',#240,1.32679491924311);
#123=CIRCLE('',#242,1.5);
#124=CIRCLE('',#244,1.5);
#125=CIRCLE('',#246,1.37397459621556);
#126=CIRCLE('',#249,1.24);
#127=CIRCLE('',#251,1.24);
#128=INVISIBILITY((#185));
#129=CURVE_STYLE('',#142,POSITIVE_LENGTH_MEASURE(0.18),#232);
#130=CURVE_STYLE('',#143,POSITIVE_LENGTH_MEASURE(0.18),#232);
#131=CURVE_STYLE('',#144,POSITIVE_LENGTH_MEASURE(0.18),#232);
#132=CURVE_STYLE('',#145,POSITIVE_LENGTH_MEASURE(0.18),#232);
#133=CURVE_STYLE('',#146,POSITIVE_LENGTH_MEASURE(0.18),#232);
#134=CURVE_STYLE('',#147,POSITIVE_LENGTH_MEASURE(0.18),#232);
#135=CURVE_STYLE('',#148,POSITIVE_LENGTH_MEASURE(0.18),#232);
#136=CURVE_STYLE('',#149,POSITIVE_LENGTH_MEASURE(0.18),#232);
#137=CURVE_STYLE('',#150,POSITIVE_LENGTH_MEASURE(0.18),#232);
#138=CURVE_STYLE('',#151,POSITIVE_LENGTH_MEASURE(0.18),#181);
#139=CURVE_STYLE('',#152,POSITIVE_LENGTH_MEASURE(0.18),#180);
#140=CURVE_STYLE('',#153,POSITIVE_LENGTH_MEASURE(0.18),#180);
#141=CURVE_STYLE('',#154,POSITIVE_LENGTH_MEASURE(0.18),#180);
#142=DRAUGHTING_PRE_DEFINED_CURVE_FONT('continuous');
#143=DRAUGHTING_PRE_DEFINED_CURVE_FONT('continuous');
#144=DRAUGHTING_PRE_DEFINED_CURVE_FONT('continuous');
#145=DRAUGHTING_PRE_DEFINED_CURVE_FONT('continuous');
#146=DRAUGHTING_PRE_DEFINED_CURVE_FONT('continuous');
#147=DRAUGHTING_PRE_DEFINED_CURVE_FONT('continuous');
#148=DRAUGHTING_PRE_DEFINED_CURVE_FONT('continuous');
#149=DRAUGHTING_PRE_DEFINED_CURVE_FONT('continuous');
#150=DRAUGHTING_PRE_DEFINED_CURVE_FONT('continuous');
#151=DRAUGHTING_PRE_DEFINED_CURVE_FONT('continuous');
#152=DRAUGHTING_PRE_DEFINED_CURVE_FONT('continuous');
#153=DRAUGHTING_PRE_DEFINED_CURVE_FONT('continuous');
#154=DRAUGHTING_PRE_DEFINED_CURVE_FONT('continuous');
#155=TRIMMED_CURVE('Line1',#164,(PARAMETER_VALUE(0.)),(
PARAMETER_VALUE(1.)),.T.,.PARAMETER.);
#156=TRIMMED_CURVE('Line3',#165,(PARAMETER_VALUE(0.)),(
PARAMETER_VALUE(1.)),.T.,.PARAMETER.);
#157=TRIMMED_CURVE('Line6',#166,(PARAMETER_VALUE(0.)),(
PARAMETER_VALUE(1.)),.T.,.PARAMETER.);
#158=TRIMMED_CURVE('Line7',#167,(PARAMETER_VALUE(0.)),(
PARAMETER_VALUE(1.)),.T.,.PARAMETER.);
#159=TRIMMED_CURVE('Line8',#168,(PARAMETER_VALUE(0.)),(
PARAMETER_VALUE(1.)),.T.,.PARAMETER.);
#160=TRIMMED_CURVE('Line9',#169,(PARAMETER_VALUE(0.)),(
PARAMETER_VALUE(1.)),.T.,.PARAMETER.);
#161=TRIMMED_CURVE('Line10',#170,(PARAMETER_VALUE(0.)),(
PARAMETER_VALUE(1.)),.T.,.PARAMETER.);
#162=TRIMMED_CURVE('Line11',#171,(PARAMETER_VALUE(0.)),(
PARAMETER_VALUE(1.)),.T.,.PARAMETER.);
#163=TRIMMED_CURVE('Arc1',#120,(PARAMETER_VALUE(60.0000000000001)),(
PARAMETER_VALUE(90.)),.T.,.PARAMETER.);
#164=LINE('Line1',#309,#172);
#165=LINE('Line3',#310,#173);
#166=LINE('Line6',#311,#174);
#167=LINE('Line7',#312,#175);
#168=LINE('Line8',#313,#176);
#169=LINE('Line9',#314,#177);
#170=LINE('Line10',#315,#178);
#171=LINE('Line11',#316,#179);
#172=VECTOR('',#256,22.9817615982463);
#173=VECTOR('',#257,4.40006453530373E-5);
#174=VECTOR('',#258,13.4217785038878);
#175=VECTOR('',#259,1.36818861951349);
#176=VECTOR('',#260,14.);
#177=VECTOR('',#261,1.24);
#178=VECTOR('',#262,0.252050807568881);
#179=VECTOR('',#263,0.346410161513776);
#180=COLOUR_RGB('Medium Maroon',0.6,0.4,0.4);
#181=COLOUR_RGB('Medium Cornflower',0.4,0.8,1.);
#182=COLOUR_RGB('Medium Gray',0.501960784313725,0.501960784313725,0.501960784313725);
#183=COLOUR_RGB('Light Gray',0.8,0.8,0.8);
#184=PRESENTATION_LAYER_ASSIGNMENT('1','Layer 1',(#305,#306,#307,#308,#119,
#235,#236,#237,#39,#40));
#185=PRESENTATION_LAYER_ASSIGNMENT('40','Layer 40',(#155,#156,#157,#158,
#159,#160,#161,#162,#163));
#186=STYLED_ITEM('',(#205),#305);
#187=STYLED_ITEM('',(#206),#306);
#188=STYLED_ITEM('',(#207),#307);
#189=STYLED_ITEM('',(#208),#308);
#190=STYLED_ITEM('',(#209),#155);
#191=STYLED_ITEM('',(#210),#156);
#192=STYLED_ITEM('',(#211),#157);
#193=STYLED_ITEM('',(#212),#158);
#194=STYLED_ITEM('',(#213),#159);
#195=STYLED_ITEM('',(#214),#160);
#196=STYLED_ITEM('',(#215),#161);
#197=STYLED_ITEM('',(#216),#162);
#198=STYLED_ITEM('',(#217),#163);
#199=STYLED_ITEM('',(#218),#119);
#200=STYLED_ITEM('',(#219),#235);
#201=STYLED_ITEM('',(#220),#236);
#202=STYLED_ITEM('',(#221),#237);
#203=STYLED_ITEM('',(#222),#39);
#204=STYLED_ITEM('',(#223),#40);
#205=PRESENTATION_STYLE_ASSIGNMENT((#224));
#206=PRESENTATION_STYLE_ASSIGNMENT((#225));
#207=PRESENTATION_STYLE_ASSIGNMENT((#226));
#208=PRESENTATION_STYLE_ASSIGNMENT((#227));
#209=PRESENTATION_STYLE_ASSIGNMENT((#129));
#210=PRESENTATION_STYLE_ASSIGNMENT((#130));
#211=PRESENTATION_STYLE_ASSIGNMENT((#131));
#212=PRESENTATION_STYLE_ASSIGNMENT((#132));
#213=PRESENTATION_STYLE_ASSIGNMENT((#133));
#214=PRESENTATION_STYLE_ASSIGNMENT((#134));
#215=PRESENTATION_STYLE_ASSIGNMENT((#135));
#216=PRESENTATION_STYLE_ASSIGNMENT((#136));
#217=PRESENTATION_STYLE_ASSIGNMENT((#137));
#218=PRESENTATION_STYLE_ASSIGNMENT((#138));
#219=PRESENTATION_STYLE_ASSIGNMENT((#139));
#220=PRESENTATION_STYLE_ASSIGNMENT((#140));
#221=PRESENTATION_STYLE_ASSIGNMENT((#141));
#222=PRESENTATION_STYLE_ASSIGNMENT((#29));
#223=PRESENTATION_STYLE_ASSIGNMENT((#30));
#224=POINT_STYLE('',#228,POSITIVE_LENGTH_MEASURE(3.),#232);
#225=POINT_STYLE('',#229,POSITIVE_LENGTH_MEASURE(3.),#180);
#226=POINT_STYLE('',#230,POSITIVE_LENGTH_MEASURE(3.),#180);
#227=POINT_STYLE('',#231,POSITIVE_LENGTH_MEASURE(3.),#180);
#228=PRE_DEFINED_POINT_MARKER_SYMBOL('plus');
#229=PRE_DEFINED_POINT_MARKER_SYMBOL('plus');
#230=PRE_DEFINED_POINT_MARKER_SYMBOL('plus');
#231=PRE_DEFINED_POINT_MARKER_SYMBOL('plus');
#232=DRAUGHTING_PRE_DEFINED_COLOUR('white');
#233=AXIS2_PLACEMENT_3D('',#304,#254,#255);
#234=AXIS2_PLACEMENT_3D('',#317,#264,#265);
#235=AXIS2_PLACEMENT_3D('PCS',#331,#266,#267);
#236=AXIS2_PLACEMENT_3D('MCS',#332,#268,#269);
#237=AXIS2_PLACEMENT_3D('CIP',#333,#270,#271);
#238=AXIS2_PLACEMENT_3D('',#334,#272,#273);
#239=AXIS2_PLACEMENT_3D('',#336,#274,#275);
#240=AXIS2_PLACEMENT_3D('',#337,#276,#277);
#241=AXIS2_PLACEMENT_3D('',#339,#278,#279);
#242=AXIS2_PLACEMENT_3D('',#340,#280,#281);
#243=AXIS2_PLACEMENT_3D('',#342,#282,#283);
#244=AXIS2_PLACEMENT_3D('',#343,#284,#285);
#245=AXIS2_PLACEMENT_3D('',#345,#286,#287);
#246=AXIS2_PLACEMENT_3D('',#346,#288,#289);
#247=AXIS2_PLACEMENT_3D('',#348,#290,#291);
#248=AXIS2_PLACEMENT_3D('',#349,#292,#293);
#249=AXIS2_PLACEMENT_3D('',#350,#294,#295);
#250=AXIS2_PLACEMENT_3D('',#352,#296,#297);
#251=AXIS2_PLACEMENT_3D('',#354,#298,#299);
#252=AXIS2_PLACEMENT_3D('',#356,#300,#301);
#253=AXIS2_PLACEMENT_3D('',#357,#302,#303);
#254=DIRECTION('',(0.,0.,1.));
#255=DIRECTION('',(1.,0.,0.));
#256=DIRECTION('',(1.25603072318254E-16,0.,-1.));
#257=DIRECTION('',(0.,0.,1.));
#258=DIRECTION('',(1.32348841763832E-16,0.,-1.));
#259=DIRECTION('',(-0.90630778703665,0.,-0.422618261740699));
#260=DIRECTION('',(0.,0.,1.));
#261=DIRECTION('',(1.,0.,0.));
#262=DIRECTION('',(-0.500000000000005,0.,-0.866025403784436));
#263=DIRECTION('',(-0.5,0.,0.866025403784438));
#264=DIRECTION('',(0.,-1.,0.));
#265=DIRECTION('',(0.,0.,1.));
#266=DIRECTION('',(0.,0.,1.));
#267=DIRECTION('',(1.,0.,0.));
#268=DIRECTION('',(0.,0.,1.));
#269=DIRECTION('',(1.,0.,0.));
#270=DIRECTION('',(0.,0.,1.));
#271=DIRECTION('',(1.,0.,0.));
#272=DIRECTION('',(0.,0.,-1.));
#273=DIRECTION('',(-1.,0.,0.));
#274=DIRECTION('',(0.,0.,-1.));
#275=DIRECTION('',(-1.,0.,0.));
#276=DIRECTION('',(0.,0.,-1.));
#277=DIRECTION('',(-1.,0.,0.));
#278=DIRECTION('',(0.,0.,-1.));
#279=DIRECTION('',(-1.,0.,0.));
#280=DIRECTION('',(0.,0.,-1.));
#281=DIRECTION('',(-1.,0.,0.));
#282=DIRECTION('',(0.,0.,-1.));
#283=DIRECTION('',(-1.,0.,5.99368634104767E-17));
#284=DIRECTION('',(0.,0.,-1.));
#285=DIRECTION('',(-1.,0.,0.));
#286=DIRECTION('',(0.,0.,-1.));
#287=DIRECTION('',(-1.,0.,0.));
#288=DIRECTION('',(0.,0.,-1.));
#289=DIRECTION('',(-1.,0.,0.));
#290=DIRECTION('',(0.,0.,1.));
#291=DIRECTION('',(1.,0.,6.59449070628743E-17));
#292=DIRECTION('',(0.,0.,-1.));
#293=DIRECTION('',(-1.,0.,0.));
#294=DIRECTION('',(0.,0.,-1.));
#295=DIRECTION('',(-1.,0.,0.));
#296=DIRECTION('',(0.,0.,-1.));
#297=DIRECTION('',(-1.,0.,0.));
#298=DIRECTION('',(0.,0.,-1.));
#299=DIRECTION('',(-1.,0.,0.));
#300=DIRECTION('',(0.,0.,1.));
#301=DIRECTION('',(1.,0.,-1.61689475995133E-17));
#302=DIRECTION('',(0.,0.,-1.));
#303=DIRECTION('',(-1.,0.,0.));
#304=CARTESIAN_POINT('',(0.,0.,0.));
#305=CARTESIAN_POINT('CRP',(1.24,0.,-37.4217785038878));
#306=CARTESIAN_POINT('',(0.,0.,0.));
#307=CARTESIAN_POINT('',(0.,0.,-23.2817615982463));
#308=CARTESIAN_POINT('',(0.,0.,-38.));
#309=CARTESIAN_POINT('',(1.5,0.,-0.3));
#310=CARTESIAN_POINT('',(1.24,0.,-24.0000440006454));
#311=CARTESIAN_POINT('',(1.24,0.,-24.));
#312=CARTESIAN_POINT('',(1.24,0.,-37.4217785038878));
#313=CARTESIAN_POINT('',(0.,0.,-38.));
#314=CARTESIAN_POINT('',(0.,0.,-24.));
#315=CARTESIAN_POINT('',(1.5,0.,-23.2817615982463));
#316=CARTESIAN_POINT('',(1.5,0.,-0.3));
#317=CARTESIAN_POINT('',(2.24,0.,-24.0000440006454));
#318=CARTESIAN_POINT('',(1.24,0.,-24.));
#319=CARTESIAN_POINT('',(1.24,0.,-28.4739261679626));
#320=CARTESIAN_POINT('',(1.24,0.,-32.9478523359252));
#321=CARTESIAN_POINT('',(1.24,0.,-37.4217785038878));
#322=CARTESIAN_POINT('',(0.826666666666669,0.,-37.6145190025919));
#323=CARTESIAN_POINT('',(0.413333333333334,0.,-37.8072595012959));
#324=CARTESIAN_POINT('',(0.,0.,-38.));
#325=CARTESIAN_POINT('',(0.,0.,-33.3333333333333));
#326=CARTESIAN_POINT('',(0.,0.,-28.6666666666667));
#327=CARTESIAN_POINT('',(0.,0.,-24.));
#328=CARTESIAN_POINT('',(0.413333333333334,0.,-24.));
#329=CARTESIAN_POINT('',(0.826666666666667,0.,-24.));
#330=CARTESIAN_POINT('',(1.24,0.,-24.));
#331=CARTESIAN_POINT('',(0.,0.,0.));
#332=CARTESIAN_POINT('',(0.,0.,-23.2817615982463));
#333=CARTESIAN_POINT('',(0.,0.,-38.));
#334=CARTESIAN_POINT('',(0.,0.,-24.0000440006454));
#335=CARTESIAN_POINT('',(-1.24,0.,-24.0000440006454));
#336=CARTESIAN_POINT('',(0.,0.,-24.0000440006454));
#337=CARTESIAN_POINT('',(0.,0.,5.42101086242752E-17));
#338=CARTESIAN_POINT('',(-1.32679491924311,0.,5.42101086242752E-17));
#339=CARTESIAN_POINT('',(0.,0.,5.42101086242752E-17));
#340=CARTESIAN_POINT('',(0.,0.,-0.300000000000002));
#341=CARTESIAN_POINT('',(-1.5,0.,-0.300000000000002));
#342=CARTESIAN_POINT('',(0.,0.,-0.300000000000002));
#343=CARTESIAN_POINT('',(0.,0.,-23.2817615982463));
#344=CARTESIAN_POINT('',(-1.5,0.,-23.2817615982463));
#345=CARTESIAN_POINT('',(0.,0.,0.));
#346=CARTESIAN_POINT('',(0.,0.,-23.5000440006454));
#347=CARTESIAN_POINT('',(-1.37397459621556,0.,-23.5000440006454));
#348=CARTESIAN_POINT('',(0.,0.,-23.5000440006454));
#349=CARTESIAN_POINT('',(0.,0.,-24.0000440006454));
#350=CARTESIAN_POINT('',(0.,0.,-24.));
#351=CARTESIAN_POINT('',(-1.24,0.,-24.));
#352=CARTESIAN_POINT('',(0.,0.,-24.));
#353=CARTESIAN_POINT('',(0.,0.,-38.));
#354=CARTESIAN_POINT('',(0.,0.,-37.4217785038878));
#355=CARTESIAN_POINT('',(-1.24,0.,-37.4217785038878));
#356=CARTESIAN_POINT('',(0.,0.,-37.4217785038878));
#357=CARTESIAN_POINT('',(0.,0.,0.));
#358=MECHANICAL_DESIGN_GEOMETRIC_PRESENTATION_REPRESENTATION('',(#186,#187,
#188,#189,#190,#191,#192,#193,#194,#195,#196,#197,#198,#199,#200,#201,#202,
#203,#204),#359);
#359=(
GEOMETRIC_REPRESENTATION_CONTEXT(3)
GLOBAL_UNCERTAINTY_ASSIGNED_CONTEXT((#360))
GLOBAL_UNIT_ASSIGNED_CONTEXT((#366,#362,#361))
REPRESENTATION_CONTEXT('1722250170898','TOP_LEVEL_ASSEMBLY_PART')
);
#360=UNCERTAINTY_MEASURE_WITH_UNIT(LENGTH_MEASURE(2.E-5),#366,
'DISTANCE_ACCURACY_VALUE','Maximum Tolerance applied to model');
#361=(
NAMED_UNIT(*)
SI_UNIT($,.STERADIAN.)
SOLID_ANGLE_UNIT()
);
#362=(
CONVERSION_BASED_UNIT('DEGREE',#364)
NAMED_UNIT(#363)
PLANE_ANGLE_UNIT()
);
#363=DIMENSIONAL_EXPONENTS(0.,0.,0.,0.,0.,0.,0.);
#364=PLANE_ANGLE_MEASURE_WITH_UNIT(PLANE_ANGLE_MEASURE(0.0174532925),#365);
#365=(
NAMED_UNIT(*)
PLANE_ANGLE_UNIT()
SI_UNIT($,.RADIAN.)
);
#366=(
LENGTH_UNIT()
NAMED_UNIT(*)
SI_UNIT(.MILLI.,.METRE.)
);
ENDSEC;
END-ISO-10303-21;
