ISO-10303-21;
HEADER;
/* Generated by software containing ST-Developer
 * from STEP Tools, Inc. (www.steptools.com) 
 */
/* OPTION: using custom schema-name function */

FILE_DESCRIPTION(
/* description */ (''),
/* implementation_level */ '2;1');

FILE_NAME(
/* name */ '2652_1_3d.stp',
/* time_stamp */ '2021-08-16T14:46:52+02:00',
/* author */ (''),
/* organization */ ('SMS'),
/* preprocessor_version */ 'ST-DEVELOPER v16.7',
/* originating_system */ 'SIEMENS PLM Software NX 12.0',
/* authorisation */ '');

FILE_SCHEMA (('AUTOMOTIVE_DESIGN { 1 0 10303 214 3 1 1 1 }'));
ENDSEC;

DATA;
#10=CONSTRUCTIVE_GEOMETRY_REPRESENTATION_RELATIONSHIP(
'supplemental geometry','',#26,#11);
#11=CONSTRUCTIVE_GEOMETRY_REPRESENTATION('supplemental geometry',(#195,
#196,#197),#328);
#12=GEOMETRICALLY_BOUNDED_WIREFRAME_SHAPE_REPRESENTATION(
'2652_1_3D-None',(#27),#328);
#13=SHAPE_REPRESENTATION_RELATIONSHIP('None',
'relationship between 2652_1_3D-None and 2652_1_3D-None',#26,#15);
#14=SHAPE_REPRESENTATION_RELATIONSHIP('None',
'relationship between 2652_1_3D-None and 2652_1_3D-None',#26,#12);
#15=ADVANCED_BREP_SHAPE_REPRESENTATION('2652_1_3D-None',(#41,#42),#328);
#16=SHAPE_DEFINITION_REPRESENTATION(#17,#26);
#17=PRODUCT_DEFINITION_SHAPE('','',#18);
#18=PRODUCT_DEFINITION(' ','',#20,#19);
#19=PRODUCT_DEFINITION_CONTEXT('part definition',#25,'design');
#20=PRODUCT_DEFINITION_FORMATION_WITH_SPECIFIED_SOURCE(' ',' ',#22,
 .NOT_KNOWN.);
#21=PRODUCT_RELATED_PRODUCT_CATEGORY('part','',(#22));
#22=PRODUCT('2652_1_3D','2652_1_3D',' ',(#23));
#23=PRODUCT_CONTEXT(' ',#25,'mechanical');
#24=APPLICATION_PROTOCOL_DEFINITION('international standard',
'automotive_design',2010,#25);
#25=APPLICATION_CONTEXT(
'core data for automotive mechanical design processes');
#26=SHAPE_REPRESENTATION('2652_1_3D-None',(#194),#328);
#27=GEOMETRIC_CURVE_SET('None',(#273,#274,#169));
#28=VERTEX_LOOP('',#140);
#29=SURFACE_STYLE_USAGE(.BOTH.,#31);
#30=SURFACE_STYLE_USAGE(.BOTH.,#32);
#31=SURFACE_SIDE_STYLE('',(#33));
#32=SURFACE_SIDE_STYLE('',(#34));
#33=SURFACE_STYLE_FILL_AREA(#35);
#34=SURFACE_STYLE_FILL_AREA(#36);
#35=FILL_AREA_STYLE('',(#37));
#36=FILL_AREA_STYLE('',(#38));
#37=FILL_AREA_STYLE_COLOUR('',#39);
#38=FILL_AREA_STYLE_COLOUR('',#40);
#39=COLOUR_RGB('TLS_NOCUT',0.499992370489052,0.499992370489052,0.499992370489052);
#40=COLOUR_RGB('TLS_CUT',0.8,0.8,0.8);
#41=MANIFOLD_SOLID_BREP('NOCUT',#43);
#42=MANIFOLD_SOLID_BREP('CUT',#44);
#43=CLOSED_SHELL('',(#55,#56,#57,#58,#59,#60,#61,#62));
#44=CLOSED_SHELL('',(#63,#64,#65,#66));
#45=PLANE('',#211);
#46=PLANE('',#212);
#47=PLANE('',#214);
#48=FACE_OUTER_BOUND('',#102,.T.);
#49=FACE_OUTER_BOUND('',#103,.T.);
#50=FACE_OUTER_BOUND('',#104,.T.);
#51=TOROIDAL_SURFACE('',#204,10.65,0.849999999999999);
#52=TOROIDAL_SURFACE('',#206,9.15000000000001,0.849999999999998);
#53=CYLINDRICAL_SURFACE('',#202,9.8);
#54=CYLINDRICAL_SURFACE('',#208,10.);
#55=ADVANCED_FACE('',(#72,#73),#67,.T.);
#56=ADVANCED_FACE('FACE_D7',(#74,#75),#53,.T.);
#57=ADVANCED_FACE('',(#76,#77),#51,.F.);
#58=ADVANCED_FACE('',(#78,#79),#52,.T.);
#59=ADVANCED_FACE('SHANK',(#80,#81),#54,.T.);
#60=ADVANCED_FACE('',(#82,#83),#68,.T.);
#61=ADVANCED_FACE('',(#48),#45,.F.);
#62=ADVANCED_FACE('',(#49),#46,.T.);
#63=ADVANCED_FACE('',(#50),#47,.F.);
#64=ADVANCED_FACE('',(#84,#85),#69,.T.);
#65=ADVANCED_FACE('',(#86,#87),#70,.T.);
#66=ADVANCED_FACE('',(#88,#89),#71,.T.);
#67=CONICAL_SURFACE('',#200,9.80000000000001,45.2568677082596);
#68=CONICAL_SURFACE('',#210,4.,60.);
#69=CONICAL_SURFACE('',#217,7.1708,0.103132291740776);
#70=CONICAL_SURFACE('',#218,9.80000000000001,45.2568677082596);
#71=CONICAL_SURFACE('',#219,9.30633348161791E-11,69.271283588658);
#72=FACE_BOUND('',#90,.T.);
#73=FACE_BOUND('',#91,.T.);
#74=FACE_BOUND('',#92,.T.);
#75=FACE_BOUND('',#93,.T.);
#76=FACE_BOUND('',#94,.T.);
#77=FACE_BOUND('',#95,.T.);
#78=FACE_BOUND('',#96,.T.);
#79=FACE_BOUND('',#97,.T.);
#80=FACE_BOUND('',#98,.T.);
#81=FACE_BOUND('',#99,.T.);
#82=FACE_BOUND('',#100,.T.);
#83=FACE_BOUND('',#101,.T.);
#84=FACE_BOUND('',#105,.T.);
#85=FACE_BOUND('',#106,.T.);
#86=FACE_BOUND('',#107,.T.);
#87=FACE_BOUND('',#108,.T.);
#88=FACE_BOUND('',#28,.T.);
#89=FACE_BOUND('',#109,.T.);
#90=EDGE_LOOP('',(#110));
#91=EDGE_LOOP('',(#111));
#92=EDGE_LOOP('',(#112));
#93=EDGE_LOOP('',(#113));
#94=EDGE_LOOP('',(#114));
#95=EDGE_LOOP('',(#115));
#96=EDGE_LOOP('',(#116));
#97=EDGE_LOOP('',(#117));
#98=EDGE_LOOP('',(#118));
#99=EDGE_LOOP('',(#119));
#100=EDGE_LOOP('',(#120));
#101=EDGE_LOOP('',(#121));
#102=EDGE_LOOP('',(#122));
#103=EDGE_LOOP('',(#123));
#104=EDGE_LOOP('',(#124));
#105=EDGE_LOOP('',(#125));
#106=EDGE_LOOP('',(#126));
#107=EDGE_LOOP('',(#127));
#108=EDGE_LOOP('',(#128));
#109=EDGE_LOOP('',(#129));
#110=ORIENTED_EDGE('',*,*,#141,.T.);
#111=ORIENTED_EDGE('',*,*,#142,.F.);
#112=ORIENTED_EDGE('',*,*,#141,.F.);
#113=ORIENTED_EDGE('',*,*,#143,.T.);
#114=ORIENTED_EDGE('',*,*,#143,.F.);
#115=ORIENTED_EDGE('',*,*,#144,.T.);
#116=ORIENTED_EDGE('',*,*,#144,.F.);
#117=ORIENTED_EDGE('',*,*,#145,.T.);
#118=ORIENTED_EDGE('',*,*,#145,.F.);
#119=ORIENTED_EDGE('',*,*,#146,.T.);
#120=ORIENTED_EDGE('',*,*,#146,.F.);
#121=ORIENTED_EDGE('',*,*,#147,.T.);
#122=ORIENTED_EDGE('',*,*,#147,.F.);
#123=ORIENTED_EDGE('',*,*,#142,.T.);
#124=ORIENTED_EDGE('',*,*,#148,.F.);
#125=ORIENTED_EDGE('',*,*,#149,.T.);
#126=ORIENTED_EDGE('',*,*,#150,.F.);
#127=ORIENTED_EDGE('',*,*,#148,.T.);
#128=ORIENTED_EDGE('',*,*,#149,.F.);
#129=ORIENTED_EDGE('',*,*,#150,.T.);
#130=VERTEX_POINT('',#295);
#131=VERTEX_POINT('',#297);
#132=VERTEX_POINT('',#300);
#133=VERTEX_POINT('',#303);
#134=VERTEX_POINT('',#306);
#135=VERTEX_POINT('',#309);
#136=VERTEX_POINT('',#312);
#137=VERTEX_POINT('',#317);
#138=VERTEX_POINT('',#320);
#139=VERTEX_POINT('',#322);
#140=VERTEX_POINT('',#325);
#141=EDGE_CURVE('',#130,#130,#151,.T.);
#142=EDGE_CURVE('',#131,#131,#152,.T.);
#143=EDGE_CURVE('',#132,#132,#153,.T.);
#144=EDGE_CURVE('',#133,#133,#154,.T.);
#145=EDGE_CURVE('',#134,#134,#155,.T.);
#146=EDGE_CURVE('',#135,#135,#156,.T.);
#147=EDGE_CURVE('',#136,#136,#157,.T.);
#148=EDGE_CURVE('',#137,#137,#158,.T.);
#149=EDGE_CURVE('',#138,#138,#159,.T.);
#150=EDGE_CURVE('',#139,#139,#160,.T.);
#151=CIRCLE('',#198,9.80000000000001);
#152=CIRCLE('',#199,9.74003405068952);
#153=CIRCLE('',#201,9.8);
#154=CIRCLE('',#203,9.9);
#155=CIRCLE('',#205,10.);
#156=CIRCLE('',#207,10.);
#157=CIRCLE('',#209,4.);
#158=CIRCLE('',#213,9.74003405068952);
#159=CIRCLE('',#215,7.1708);
#160=CIRCLE('',#216,7.25000000000007);
#161=CURVE_STYLE('',#165,POSITIVE_LENGTH_MEASURE(0.18),#191);
#162=CURVE_STYLE('',#166,POSITIVE_LENGTH_MEASURE(0.13),#193);
#163=CURVE_STYLE('',#167,POSITIVE_LENGTH_MEASURE(0.13),#193);
#164=CURVE_STYLE('',#168,POSITIVE_LENGTH_MEASURE(0.13),#193);
#165=DRAUGHTING_PRE_DEFINED_CURVE_FONT('continuous');
#166=DRAUGHTING_PRE_DEFINED_CURVE_FONT('continuous');
#167=DRAUGHTING_PRE_DEFINED_CURVE_FONT('continuous');
#168=DRAUGHTING_PRE_DEFINED_CURVE_FONT('continuous');
#169=B_SPLINE_CURVE_WITH_KNOTS('CUTTING PART LINE',3,(#275,#276,#277,#278,
#279,#280,#281,#282,#283,#284,#285,#286,#287,#288,#289,#290),
 .UNSPECIFIED.,.T.,.F.,(4,3,3,3,3,4),(0.,0.430859770762645,0.516000546544699,
0.547620226828045,0.932239026284689,1.),.UNSPECIFIED.);
#170=PRESENTATION_LAYER_ASSIGNMENT('1','Layer 1',(#273,#274,#169,#195,#196,
#197,#41,#42));
#171=STYLED_ITEM('',(#179),#273);
#172=STYLED_ITEM('',(#180),#274);
#173=STYLED_ITEM('',(#181),#169);
#174=STYLED_ITEM('',(#182),#195);
#175=STYLED_ITEM('',(#183),#196);
#176=STYLED_ITEM('',(#184),#197);
#177=STYLED_ITEM('',(#185),#41);
#178=STYLED_ITEM('',(#186),#42);
#179=PRESENTATION_STYLE_ASSIGNMENT((#187));
#180=PRESENTATION_STYLE_ASSIGNMENT((#188));
#181=PRESENTATION_STYLE_ASSIGNMENT((#161));
#182=PRESENTATION_STYLE_ASSIGNMENT((#162));
#183=PRESENTATION_STYLE_ASSIGNMENT((#163));
#184=PRESENTATION_STYLE_ASSIGNMENT((#164));
#185=PRESENTATION_STYLE_ASSIGNMENT((#29));
#186=PRESENTATION_STYLE_ASSIGNMENT((#30));
#187=POINT_STYLE('',#189,POSITIVE_LENGTH_MEASURE(3.),#191);
#188=POINT_STYLE('',#190,POSITIVE_LENGTH_MEASURE(3.),#192);
#189=PRE_DEFINED_POINT_MARKER_SYMBOL('plus');
#190=PRE_DEFINED_POINT_MARKER_SYMBOL('plus');
#191=DRAUGHTING_PRE_DEFINED_COLOUR('blue');
#192=DRAUGHTING_PRE_DEFINED_COLOUR('white');
#193=DRAUGHTING_PRE_DEFINED_COLOUR('green');
#194=AXIS2_PLACEMENT_3D('',#272,#220,#221);
#195=AXIS2_PLACEMENT_3D('PCS',#291,#222,#223);
#196=AXIS2_PLACEMENT_3D('MCS',#292,#224,#225);
#197=AXIS2_PLACEMENT_3D('CIP',#293,#226,#227);
#198=AXIS2_PLACEMENT_3D('',#294,#228,#229);
#199=AXIS2_PLACEMENT_3D('',#296,#230,#231);
#200=AXIS2_PLACEMENT_3D('',#298,#232,#233);
#201=AXIS2_PLACEMENT_3D('',#299,#234,#235);
#202=AXIS2_PLACEMENT_3D('',#301,#236,#237);
#203=AXIS2_PLACEMENT_3D('',#302,#238,#239);
#204=AXIS2_PLACEMENT_3D('',#304,#240,#241);
#205=AXIS2_PLACEMENT_3D('',#305,#242,#243);
#206=AXIS2_PLACEMENT_3D('',#307,#244,#245);
#207=AXIS2_PLACEMENT_3D('',#308,#246,#247);
#208=AXIS2_PLACEMENT_3D('',#310,#248,#249);
#209=AXIS2_PLACEMENT_3D('',#311,#250,#251);
#210=AXIS2_PLACEMENT_3D('',#313,#252,#253);
#211=AXIS2_PLACEMENT_3D('',#314,#254,#255);
#212=AXIS2_PLACEMENT_3D('',#315,#256,#257);
#213=AXIS2_PLACEMENT_3D('',#316,#258,#259);
#214=AXIS2_PLACEMENT_3D('',#318,#260,#261);
#215=AXIS2_PLACEMENT_3D('',#319,#262,#263);
#216=AXIS2_PLACEMENT_3D('',#321,#264,#265);
#217=AXIS2_PLACEMENT_3D('',#323,#266,#267);
#218=AXIS2_PLACEMENT_3D('',#324,#268,#269);
#219=AXIS2_PLACEMENT_3D('',#326,#270,#271);
#220=DIRECTION('',(0.,0.,1.));
#221=DIRECTION('',(1.,0.,0.));
#222=DIRECTION('',(0.,0.,1.));
#223=DIRECTION('',(1.,0.,0.));
#224=DIRECTION('',(0.,0.,1.));
#225=DIRECTION('',(1.,0.,0.));
#226=DIRECTION('',(0.,0.,1.));
#227=DIRECTION('',(1.,0.,0.));
#228=DIRECTION('',(0.,0.,-1.));
#229=DIRECTION('',(1.,0.,0.));
#230=DIRECTION('',(0.,0.,-1.));
#231=DIRECTION('',(1.,0.,0.));
#232=DIRECTION('',(0.,0.,1.));
#233=DIRECTION('',(-1.,0.,-1.36216087446953E-17));
#234=DIRECTION('',(0.,0.,-1.));
#235=DIRECTION('',(1.,0.,0.));
#236=DIRECTION('',(0.,0.,-1.));
#237=DIRECTION('',(1.,0.,0.));
#238=DIRECTION('',(0.,0.,-1.));
#239=DIRECTION('',(1.,0.,0.));
#240=DIRECTION('',(0.,0.,-1.));
#241=DIRECTION('',(1.,0.,0.));
#242=DIRECTION('',(0.,0.,-1.));
#243=DIRECTION('',(1.,0.,0.));
#244=DIRECTION('',(0.,0.,-1.));
#245=DIRECTION('',(1.,0.,0.));
#246=DIRECTION('',(0.,0.,-1.));
#247=DIRECTION('',(1.,0.,0.));
#248=DIRECTION('',(0.,0.,-1.));
#249=DIRECTION('',(1.,0.,0.));
#250=DIRECTION('',(0.,0.,-1.));
#251=DIRECTION('',(1.,0.,0.));
#252=DIRECTION('',(0.,0.,-1.));
#253=DIRECTION('',(1.,0.,0.));
#254=DIRECTION('',(0.,0.,-1.));
#255=DIRECTION('',(1.,0.,0.));
#256=DIRECTION('',(0.,0.,-1.));
#257=DIRECTION('',(1.,0.,0.));
#258=DIRECTION('',(0.,0.,-1.));
#259=DIRECTION('',(1.,0.,0.));
#260=DIRECTION('',(0.,0.,-1.));
#261=DIRECTION('',(1.,0.,0.));
#262=DIRECTION('',(0.,0.,-1.));
#263=DIRECTION('',(1.,0.,0.));
#264=DIRECTION('',(0.,0.,-1.));
#265=DIRECTION('',(-1.,0.,0.));
#266=DIRECTION('',(0.,0.,-1.));
#267=DIRECTION('',(1.,0.,1.2375964514036E-14));
#268=DIRECTION('',(0.,0.,1.));
#269=DIRECTION('',(-1.,0.,-1.36216087446953E-17));
#270=DIRECTION('',(0.,0.,1.));
#271=DIRECTION('',(-1.,0.,0.));
#272=CARTESIAN_POINT('',(0.,0.,0.));
#273=CARTESIAN_POINT('CRP',(7.25,0.,-139.2563));
#274=CARTESIAN_POINT('',(0.,0.,-142.));
#275=CARTESIAN_POINT('',(0.,0.,-142.000000000035));
#276=CARTESIAN_POINT('',(0.,0.,-125.570000000024));
#277=CARTESIAN_POINT('',(0.,0.,-109.140000000012));
#278=CARTESIAN_POINT('',(0.,0.,-92.71));
#279=CARTESIAN_POINT('',(3.24667801689651,0.,-92.71));
#280=CARTESIAN_POINT('',(6.49335603379302,0.,-92.71));
#281=CARTESIAN_POINT('',(9.74003405068952,0.,-92.71));
#282=CARTESIAN_POINT('',(8.88362270045968,0.,-93.5587666666667));
#283=CARTESIAN_POINT('',(8.02721135022983,0.,-94.4075333333334));
#284=CARTESIAN_POINT('',(7.17079999999999,0.,-95.2563000000001));
#285=CARTESIAN_POINT('',(7.19720000000002,0.,-109.922966666679));
#286=CARTESIAN_POINT('',(7.22360000000004,0.,-124.589633333358));
#287=CARTESIAN_POINT('',(7.25000000000007,0.,-139.256300000036));
#288=CARTESIAN_POINT('',(4.83333333333271,0.,-140.170866666702));
#289=CARTESIAN_POINT('',(2.41666666666635,0.,-141.085433333369));
#290=CARTESIAN_POINT('',(0.,0.,-142.000000000035));
#291=CARTESIAN_POINT('',(0.,0.,0.));
#292=CARTESIAN_POINT('',(0.,0.,-50.));
#293=CARTESIAN_POINT('',(0.,0.,-142.));
#294=CARTESIAN_POINT('',(0.,0.,-92.6505693316698));
#295=CARTESIAN_POINT('',(9.80000000000001,0.,-92.6505693316698));
#296=CARTESIAN_POINT('',(0.,0.,-92.71));
#297=CARTESIAN_POINT('',(9.74003405068952,0.,-92.71));
#298=CARTESIAN_POINT('',(0.,0.,-92.6505693316698));
#299=CARTESIAN_POINT('',(0.,0.,-50.8));
#300=CARTESIAN_POINT('',(9.8,0.,-50.8));
#301=CARTESIAN_POINT('',(0.,0.,25.149897442623));
#302=CARTESIAN_POINT('',(0.,0.,-50.4));
#303=CARTESIAN_POINT('',(9.9,0.,-50.4));
#304=CARTESIAN_POINT('',(0.,0.,-50.8));
#305=CARTESIAN_POINT('',(0.,0.,-50.));
#306=CARTESIAN_POINT('',(10.,0.,-50.));
#307=CARTESIAN_POINT('',(0.,0.,-50.));
#308=CARTESIAN_POINT('',(0.,0.,-3.46410161513776));
#309=CARTESIAN_POINT('',(10.,0.,-3.46410161513776));
#310=CARTESIAN_POINT('',(0.,0.,25.149897442623));
#311=CARTESIAN_POINT('',(0.,0.,0.));
#312=CARTESIAN_POINT('',(4.,0.,0.));
#313=CARTESIAN_POINT('',(0.,0.,0.));
#314=CARTESIAN_POINT('',(0.,0.,5.73666324202454E-17));
#315=CARTESIAN_POINT('',(0.,0.,-92.71));
#316=CARTESIAN_POINT('',(0.,0.,-92.71));
#317=CARTESIAN_POINT('',(9.74003405068952,0.,-92.71));
#318=CARTESIAN_POINT('',(0.,0.,-92.71));
#319=CARTESIAN_POINT('',(0.,0.,-95.2563000000001));
#320=CARTESIAN_POINT('',(7.1708,0.,-95.2563000000001));
#321=CARTESIAN_POINT('',(0.,0.,-139.256300000036));
#322=CARTESIAN_POINT('',(-7.25000000000007,0.,-139.256300000036));
#323=CARTESIAN_POINT('',(0.,0.,-95.2563000000001));
#324=CARTESIAN_POINT('',(0.,0.,-92.6505693316698));
#325=CARTESIAN_POINT('',(9.30633348161791E-11,0.,-142.));
#326=CARTESIAN_POINT('',(0.,0.,-142.));
#327=MECHANICAL_DESIGN_GEOMETRIC_PRESENTATION_REPRESENTATION('',(#171,#172,
#173,#174,#175,#176,#177,#178),#328);
#328=(
GEOMETRIC_REPRESENTATION_CONTEXT(3)
GLOBAL_UNCERTAINTY_ASSIGNED_CONTEXT((#329))
GLOBAL_UNIT_ASSIGNED_CONTEXT((#335,#331,#330))
REPRESENTATION_CONTEXT('2652_1_3d','TOP_LEVEL_ASSEMBLY_PART')
);
#329=UNCERTAINTY_MEASURE_WITH_UNIT(LENGTH_MEASURE(2.E-5),#335,
'DISTANCE_ACCURACY_VALUE','Maximum Tolerance applied to model');
#330=(
NAMED_UNIT(*)
SI_UNIT($,.STERADIAN.)
SOLID_ANGLE_UNIT()
);
#331=(
CONVERSION_BASED_UNIT('DEGREE',#333)
NAMED_UNIT(#332)
PLANE_ANGLE_UNIT()
);
#332=DIMENSIONAL_EXPONENTS(0.,0.,0.,0.,0.,0.,0.);
#333=PLANE_ANGLE_MEASURE_WITH_UNIT(PLANE_ANGLE_MEASURE(0.0174532925),#334);
#334=(
NAMED_UNIT(*)
PLANE_ANGLE_UNIT()
SI_UNIT($,.RADIAN.)
);
#335=(
LENGTH_UNIT()
NAMED_UNIT(*)
SI_UNIT(.MILLI.,.METRE.)
);
ENDSEC;
END-ISO-10303-21;
