ISO-10303-21;
HEADER;
/* Generated by software containing ST-Developer
 * from STEP Tools, Inc. (www.steptools.com) 
 */
/* OPTION: using custom schema-name function */

FILE_DESCRIPTION(
/* description */ (''),
/* implementation_level */ '2;1');

FILE_NAME(
/* name */ '1424_1_3d.stp',
/* time_stamp */ '2021-08-16T08:39:10+02:00',
/* author */ (''),
/* organization */ ('SMS'),
/* preprocessor_version */ 'ST-DEVELOPER v16.7',
/* originating_system */ 'SIEMENS PLM Software NX 12.0',
/* authorisation */ '');

FILE_SCHEMA (('AUTOMOTIVE_DESIGN { 1 0 10303 214 3 1 1 1 }'));
ENDSEC;

DATA;
#10=CONSTRUCTIVE_GEOMETRY_REPRESENTATION_RELATIONSHIP(
'supplemental geometry','',#26,#11);
#11=CONSTRUCTIVE_GEOMETRY_REPRESENTATION('supplemental geometry',(#173,
#174,#175),#285);
#12=GEOMETRICALLY_BOUNDED_WIREFRAME_SHAPE_REPRESENTATION(
'1424_1_3D-None',(#27),#285);
#13=SHAPE_REPRESENTATION_RELATIONSHIP('None',
'relationship between 1424_1_3D-None and 1424_1_3D-None',#26,#15);
#14=SHAPE_REPRESENTATION_RELATIONSHIP('None',
'relationship between 1424_1_3D-None and 1424_1_3D-None',#26,#12);
#15=ADVANCED_BREP_SHAPE_REPRESENTATION('1424_1_3D-None',(#41,#42),#285);
#16=SHAPE_DEFINITION_REPRESENTATION(#17,#26);
#17=PRODUCT_DEFINITION_SHAPE('','',#18);
#18=PRODUCT_DEFINITION(' ','',#20,#19);
#19=PRODUCT_DEFINITION_CONTEXT('part definition',#25,'design');
#20=PRODUCT_DEFINITION_FORMATION_WITH_SPECIFIED_SOURCE(' ',' ',#22,
 .NOT_KNOWN.);
#21=PRODUCT_RELATED_PRODUCT_CATEGORY('part','',(#22));
#22=PRODUCT('1424_1_3D','1424_1_3D',' ',(#23));
#23=PRODUCT_CONTEXT(' ',#25,'mechanical');
#24=APPLICATION_PROTOCOL_DEFINITION('international standard',
'automotive_design',2010,#25);
#25=APPLICATION_CONTEXT(
'core data for automotive mechanical design processes');
#26=SHAPE_REPRESENTATION('1424_1_3D-None',(#172),#285);
#27=GEOMETRIC_CURVE_SET('None',(#239,#240,#147));
#28=VERTEX_LOOP('',#122);
#29=SURFACE_STYLE_USAGE(.BOTH.,#31);
#30=SURFACE_STYLE_USAGE(.BOTH.,#32);
#31=SURFACE_SIDE_STYLE('',(#33));
#32=SURFACE_SIDE_STYLE('',(#34));
#33=SURFACE_STYLE_FILL_AREA(#35);
#34=SURFACE_STYLE_FILL_AREA(#36);
#35=FILL_AREA_STYLE('',(#37));
#36=FILL_AREA_STYLE('',(#38));
#37=FILL_AREA_STYLE_COLOUR('',#39);
#38=FILL_AREA_STYLE_COLOUR('',#40);
#39=COLOUR_RGB('TLS_NOCUT',0.499992370489052,0.499992370489052,0.499992370489052);
#40=COLOUR_RGB('TLS_CUT',0.8,0.8,0.8);
#41=MANIFOLD_SOLID_BREP('NOCUT',#43);
#42=MANIFOLD_SOLID_BREP('CUT',#44);
#43=CLOSED_SHELL('',(#54,#55,#56,#57,#58,#59,#60));
#44=CLOSED_SHELL('',(#61,#62,#63));
#45=TOROIDAL_SURFACE('',#186,2.15,0.850000000000002);
#46=TOROIDAL_SURFACE('',#187,2.60742238440437,0.850000000000002);
#47=CYLINDRICAL_SURFACE('',#184,3.);
#48=PLANE('',#180);
#49=PLANE('',#188);
#50=PLANE('',#190);
#51=FACE_OUTER_BOUND('',#84,.T.);
#52=FACE_OUTER_BOUND('',#93,.T.);
#53=FACE_OUTER_BOUND('',#94,.T.);
#54=ADVANCED_FACE('',(#68,#69),#64,.T.);
#55=ADVANCED_FACE('',(#51),#48,.T.);
#56=ADVANCED_FACE('',(#70,#71),#65,.T.);
#57=ADVANCED_FACE('SHANK',(#72,#73),#47,.T.);
#58=ADVANCED_FACE('',(#74,#75),#45,.T.);
#59=ADVANCED_FACE('',(#76,#77),#46,.F.);
#60=ADVANCED_FACE('',(#52),#49,.T.);
#61=ADVANCED_FACE('',(#53),#50,.F.);
#62=ADVANCED_FACE('',(#78,#79),#66,.T.);
#63=ADVANCED_FACE('',(#80,#81),#67,.T.);
#64=CONICAL_SURFACE('',#178,1.80279276676982,0.103132291740777);
#65=CONICAL_SURFACE('',#182,3.,59.9999999999999);
#66=CONICAL_SURFACE('',#192,1.80279276676982,0.103132291740777);
#67=CONICAL_SURFACE('',#193,9.48463529937271E-13,68.5369020032537);
#68=FACE_BOUND('',#82,.T.);
#69=FACE_BOUND('',#83,.T.);
#70=FACE_BOUND('',#85,.T.);
#71=FACE_BOUND('',#86,.T.);
#72=FACE_BOUND('',#87,.T.);
#73=FACE_BOUND('',#88,.T.);
#74=FACE_BOUND('',#89,.T.);
#75=FACE_BOUND('',#90,.T.);
#76=FACE_BOUND('',#91,.T.);
#77=FACE_BOUND('',#92,.T.);
#78=FACE_BOUND('',#95,.T.);
#79=FACE_BOUND('',#96,.T.);
#80=FACE_BOUND('',#97,.T.);
#81=FACE_BOUND('',#28,.T.);
#82=EDGE_LOOP('',(#98));
#83=EDGE_LOOP('',(#99));
#84=EDGE_LOOP('',(#100));
#85=EDGE_LOOP('',(#101));
#86=EDGE_LOOP('',(#102));
#87=EDGE_LOOP('',(#103));
#88=EDGE_LOOP('',(#104));
#89=EDGE_LOOP('',(#105));
#90=EDGE_LOOP('',(#106));
#91=EDGE_LOOP('',(#107));
#92=EDGE_LOOP('',(#108));
#93=EDGE_LOOP('',(#109));
#94=EDGE_LOOP('',(#110));
#95=EDGE_LOOP('',(#111));
#96=EDGE_LOOP('',(#112));
#97=EDGE_LOOP('',(#113));
#98=ORIENTED_EDGE('',*,*,#123,.T.);
#99=ORIENTED_EDGE('',*,*,#124,.T.);
#100=ORIENTED_EDGE('',*,*,#125,.F.);
#101=ORIENTED_EDGE('',*,*,#125,.T.);
#102=ORIENTED_EDGE('',*,*,#126,.F.);
#103=ORIENTED_EDGE('',*,*,#126,.T.);
#104=ORIENTED_EDGE('',*,*,#127,.F.);
#105=ORIENTED_EDGE('',*,*,#127,.T.);
#106=ORIENTED_EDGE('',*,*,#128,.F.);
#107=ORIENTED_EDGE('',*,*,#128,.T.);
#108=ORIENTED_EDGE('',*,*,#123,.F.);
#109=ORIENTED_EDGE('',*,*,#124,.F.);
#110=ORIENTED_EDGE('',*,*,#129,.T.);
#111=ORIENTED_EDGE('',*,*,#129,.F.);
#112=ORIENTED_EDGE('',*,*,#130,.T.);
#113=ORIENTED_EDGE('',*,*,#130,.F.);
#114=VERTEX_POINT('',#258);
#115=VERTEX_POINT('',#260);
#116=VERTEX_POINT('',#263);
#117=VERTEX_POINT('',#266);
#118=VERTEX_POINT('',#269);
#119=VERTEX_POINT('',#272);
#120=VERTEX_POINT('',#277);
#121=VERTEX_POINT('',#280);
#122=VERTEX_POINT('',#282);
#123=EDGE_CURVE('',#114,#114,#131,.T.);
#124=EDGE_CURVE('',#115,#115,#132,.T.);
#125=EDGE_CURVE('',#116,#116,#133,.T.);
#126=EDGE_CURVE('',#117,#117,#134,.T.);
#127=EDGE_CURVE('',#118,#118,#135,.T.);
#128=EDGE_CURVE('',#119,#119,#136,.T.);
#129=EDGE_CURVE('',#120,#120,#137,.T.);
#130=EDGE_CURVE('',#121,#121,#138,.T.);
#131=CIRCLE('',#176,1.75742376140103);
#132=CIRCLE('',#177,1.78055586);
#133=CIRCLE('',#179,1.25);
#134=CIRCLE('',#181,3.);
#135=CIRCLE('',#183,3.);
#136=CIRCLE('',#185,2.37871119220219);
#137=CIRCLE('',#189,1.78055586);
#138=CIRCLE('',#191,1.8);
#139=CURVE_STYLE('',#143,POSITIVE_LENGTH_MEASURE(0.18),#169);
#140=CURVE_STYLE('',#144,POSITIVE_LENGTH_MEASURE(0.13),#171);
#141=CURVE_STYLE('',#145,POSITIVE_LENGTH_MEASURE(0.13),#171);
#142=CURVE_STYLE('',#146,POSITIVE_LENGTH_MEASURE(0.13),#171);
#143=DRAUGHTING_PRE_DEFINED_CURVE_FONT('continuous');
#144=DRAUGHTING_PRE_DEFINED_CURVE_FONT('continuous');
#145=DRAUGHTING_PRE_DEFINED_CURVE_FONT('continuous');
#146=DRAUGHTING_PRE_DEFINED_CURVE_FONT('continuous');
#147=B_SPLINE_CURVE_WITH_KNOTS('CUTTING PART LINE',3,(#241,#242,#243,#244,
#245,#246,#247,#248,#249,#250,#251,#252,#253),.UNSPECIFIED.,.T.,.F.,(4,
3,3,3,4),(0.,0.442233094524306,0.51064497358088,0.925687744730443,1.),
 .UNSPECIFIED.);
#148=PRESENTATION_LAYER_ASSIGNMENT('1','Layer 1',(#239,#240,#147,#173,#174,
#175,#41,#42));
#149=STYLED_ITEM('',(#157),#239);
#150=STYLED_ITEM('',(#158),#240);
#151=STYLED_ITEM('',(#159),#147);
#152=STYLED_ITEM('',(#160),#173);
#153=STYLED_ITEM('',(#161),#174);
#154=STYLED_ITEM('',(#162),#175);
#155=STYLED_ITEM('',(#163),#41);
#156=STYLED_ITEM('',(#164),#42);
#157=PRESENTATION_STYLE_ASSIGNMENT((#165));
#158=PRESENTATION_STYLE_ASSIGNMENT((#166));
#159=PRESENTATION_STYLE_ASSIGNMENT((#139));
#160=PRESENTATION_STYLE_ASSIGNMENT((#140));
#161=PRESENTATION_STYLE_ASSIGNMENT((#141));
#162=PRESENTATION_STYLE_ASSIGNMENT((#142));
#163=PRESENTATION_STYLE_ASSIGNMENT((#29));
#164=PRESENTATION_STYLE_ASSIGNMENT((#30));
#165=POINT_STYLE('',#167,POSITIVE_LENGTH_MEASURE(3.),#169);
#166=POINT_STYLE('',#168,POSITIVE_LENGTH_MEASURE(3.),#170);
#167=PRE_DEFINED_POINT_MARKER_SYMBOL('plus');
#168=PRE_DEFINED_POINT_MARKER_SYMBOL('plus');
#169=DRAUGHTING_PRE_DEFINED_COLOUR('blue');
#170=DRAUGHTING_PRE_DEFINED_COLOUR('white');
#171=DRAUGHTING_PRE_DEFINED_COLOUR('green');
#172=AXIS2_PLACEMENT_3D('',#238,#194,#195);
#173=AXIS2_PLACEMENT_3D('PCS',#254,#196,#197);
#174=AXIS2_PLACEMENT_3D('MCS',#255,#198,#199);
#175=AXIS2_PLACEMENT_3D('CIP',#256,#200,#201);
#176=AXIS2_PLACEMENT_3D('',#257,#202,#203);
#177=AXIS2_PLACEMENT_3D('',#259,#204,#205);
#178=AXIS2_PLACEMENT_3D('',#261,#206,#207);
#179=AXIS2_PLACEMENT_3D('',#262,#208,#209);
#180=AXIS2_PLACEMENT_3D('',#264,#210,#211);
#181=AXIS2_PLACEMENT_3D('',#265,#212,#213);
#182=AXIS2_PLACEMENT_3D('',#267,#214,#215);
#183=AXIS2_PLACEMENT_3D('',#268,#216,#217);
#184=AXIS2_PLACEMENT_3D('',#270,#218,#219);
#185=AXIS2_PLACEMENT_3D('',#271,#220,#221);
#186=AXIS2_PLACEMENT_3D('',#273,#222,#223);
#187=AXIS2_PLACEMENT_3D('',#274,#224,#225);
#188=AXIS2_PLACEMENT_3D('',#275,#226,#227);
#189=AXIS2_PLACEMENT_3D('',#276,#228,#229);
#190=AXIS2_PLACEMENT_3D('',#278,#230,#231);
#191=AXIS2_PLACEMENT_3D('',#279,#232,#233);
#192=AXIS2_PLACEMENT_3D('',#281,#234,#235);
#193=AXIS2_PLACEMENT_3D('',#283,#236,#237);
#194=DIRECTION('',(0.,0.,1.));
#195=DIRECTION('',(1.,0.,0.));
#196=DIRECTION('',(0.,0.,1.));
#197=DIRECTION('',(1.,0.,0.));
#198=DIRECTION('',(0.,0.,1.));
#199=DIRECTION('',(1.,0.,0.));
#200=DIRECTION('',(0.,0.,1.));
#201=DIRECTION('',(1.,0.,0.));
#202=DIRECTION('',(0.,0.,-1.));
#203=DIRECTION('',(1.,0.,0.));
#204=DIRECTION('',(0.,0.,1.));
#205=DIRECTION('',(1.,0.,0.));
#206=DIRECTION('',(0.,0.,-1.));
#207=DIRECTION('',(1.,0.,0.));
#208=DIRECTION('',(0.,0.,-1.));
#209=DIRECTION('',(1.,0.,0.));
#210=DIRECTION('',(0.,0.,1.));
#211=DIRECTION('',(-1.,0.,0.));
#212=DIRECTION('',(0.,0.,-1.));
#213=DIRECTION('',(1.,0.,0.));
#214=DIRECTION('',(0.,0.,-1.));
#215=DIRECTION('',(1.,0.,1.99962268356565E-17));
#216=DIRECTION('',(0.,0.,-1.));
#217=DIRECTION('',(1.,0.,0.));
#218=DIRECTION('',(0.,0.,-1.));
#219=DIRECTION('',(1.,0.,0.));
#220=DIRECTION('',(0.,0.,-1.));
#221=DIRECTION('',(1.,0.,0.));
#222=DIRECTION('',(0.,0.,-1.));
#223=DIRECTION('',(1.,0.,0.));
#224=DIRECTION('',(0.,0.,-1.));
#225=DIRECTION('',(1.,0.,0.));
#226=DIRECTION('',(0.,0.,-1.));
#227=DIRECTION('',(1.,0.,0.));
#228=DIRECTION('',(0.,0.,1.));
#229=DIRECTION('',(1.,0.,0.));
#230=DIRECTION('',(0.,0.,-1.));
#231=DIRECTION('',(1.,0.,0.));
#232=DIRECTION('',(0.,0.,1.));
#233=DIRECTION('',(-1.,0.,0.));
#234=DIRECTION('',(0.,0.,-1.));
#235=DIRECTION('',(1.,0.,0.));
#236=DIRECTION('',(0.,0.,1.));
#237=DIRECTION('',(-1.,0.,-2.18251342924339E-17));
#238=CARTESIAN_POINT('',(0.,0.,0.));
#239=CARTESIAN_POINT('CRP',(1.8,0.,-61.2923));
#240=CARTESIAN_POINT('',(0.,0.,-62.));
#241=CARTESIAN_POINT('',(0.,0.,-62.0000000000004));
#242=CARTESIAN_POINT('',(0.,0.,-58.1633333333336));
#243=CARTESIAN_POINT('',(0.,0.,-54.3266666666668));
#244=CARTESIAN_POINT('',(0.,0.,-50.49));
#245=CARTESIAN_POINT('',(0.59351862,0.,-50.49));
#246=CARTESIAN_POINT('',(1.18703724,0.,-50.49));
#247=CARTESIAN_POINT('',(1.78055586,0.,-50.49));
#248=CARTESIAN_POINT('',(1.78703724,0.,-54.0907666666667));
#249=CARTESIAN_POINT('',(1.79351862,0.,-57.6915333333333));
#250=CARTESIAN_POINT('',(1.8,0.,-61.2923));
#251=CARTESIAN_POINT('',(1.20000000000009,0.,-61.5282000000001));
#252=CARTESIAN_POINT('',(0.600000000000043,0.,-61.7641000000002));
#253=CARTESIAN_POINT('',(0.,0.,-62.0000000000004));
#254=CARTESIAN_POINT('',(0.,0.,0.));
#255=CARTESIAN_POINT('',(0.,0.,-36.));
#256=CARTESIAN_POINT('',(0.,0.,-62.));
#257=CARTESIAN_POINT('',(0.,0.,-37.6388341116816));
#258=CARTESIAN_POINT('',(1.75742376140103,0.,-37.6388341116816));
#259=CARTESIAN_POINT('',(0.,0.,-50.49));
#260=CARTESIAN_POINT('',(1.78055586,0.,-50.49));
#261=CARTESIAN_POINT('',(0.,0.,-62.8438370943454));
#262=CARTESIAN_POINT('',(0.,0.,0.));
#263=CARTESIAN_POINT('',(1.25,0.,0.));
#264=CARTESIAN_POINT('',(1.25,0.,-1.11022302462516E-16));
#265=CARTESIAN_POINT('',(0.,0.,-1.01036297108185));
#266=CARTESIAN_POINT('',(3.,0.,-1.01036297108185));
#267=CARTESIAN_POINT('',(0.,0.,-1.01036297108185));
#268=CARTESIAN_POINT('',(0.,0.,-36.));
#269=CARTESIAN_POINT('',(3.,0.,-36.));
#270=CARTESIAN_POINT('',(0.,0.,25.149897442623));
#271=CARTESIAN_POINT('',(0.,0.,-36.8186520570801));
#272=CARTESIAN_POINT('',(2.37871119220219,0.,-36.8186520570801));
#273=CARTESIAN_POINT('',(0.,0.,-36.));
#274=CARTESIAN_POINT('',(0.,0.,-37.6373041141602));
#275=CARTESIAN_POINT('',(0.,0.,-50.49));
#276=CARTESIAN_POINT('',(0.,0.,-50.49));
#277=CARTESIAN_POINT('',(1.78055586,0.,-50.49));
#278=CARTESIAN_POINT('',(0.,0.,-50.49));
#279=CARTESIAN_POINT('',(0.,0.,-61.2923));
#280=CARTESIAN_POINT('',(-1.8,0.,-61.2923));
#281=CARTESIAN_POINT('',(0.,0.,-62.8438370943454));
#282=CARTESIAN_POINT('',(-9.48463529937271E-13,0.,-62.));
#283=CARTESIAN_POINT('',(0.,0.,-62.));
#284=MECHANICAL_DESIGN_GEOMETRIC_PRESENTATION_REPRESENTATION('',(#149,#150,
#151,#152,#153,#154,#155,#156),#285);
#285=(
GEOMETRIC_REPRESENTATION_CONTEXT(3)
GLOBAL_UNCERTAINTY_ASSIGNED_CONTEXT((#286))
GLOBAL_UNIT_ASSIGNED_CONTEXT((#292,#288,#287))
REPRESENTATION_CONTEXT('1424_1_3d','TOP_LEVEL_ASSEMBLY_PART')
);
#286=UNCERTAINTY_MEASURE_WITH_UNIT(LENGTH_MEASURE(2.E-5),#292,
'DISTANCE_ACCURACY_VALUE','Maximum Tolerance applied to model');
#287=(
NAMED_UNIT(*)
SI_UNIT($,.STERADIAN.)
SOLID_ANGLE_UNIT()
);
#288=(
CONVERSION_BASED_UNIT('DEGREE',#290)
NAMED_UNIT(#289)
PLANE_ANGLE_UNIT()
);
#289=DIMENSIONAL_EXPONENTS(0.,0.,0.,0.,0.,0.,0.);
#290=PLANE_ANGLE_MEASURE_WITH_UNIT(PLANE_ANGLE_MEASURE(0.0174532925),#291);
#291=(
NAMED_UNIT(*)
PLANE_ANGLE_UNIT()
SI_UNIT($,.RADIAN.)
);
#292=(
LENGTH_UNIT()
NAMED_UNIT(*)
SI_UNIT(.MILLI.,.METRE.)
);
ENDSEC;
END-ISO-10303-21;
