ISO-10303-21;
HEADER;
/* Generated by software containing ST-Developer
 * from STEP Tools, Inc. (www.steptools.com) 
 */
/* OPTION: using custom schema-name function */

FILE_DESCRIPTION(
/* description */ (''),
/* implementation_level */ '2;1');

FILE_NAME(
/* name */ '1622543234480.stp',
/* time_stamp */ '2021-06-01T12:27:34+02:00',
/* author */ (''),
/* organization */ ('SMS'),
/* preprocessor_version */ 'ST-DEVELOPER v16.7',
/* originating_system */ 'SIEMENS PLM Software NX 12.0',
/* authorisation */ '');

FILE_SCHEMA (('AUTOMOTIVE_DESIGN { 1 0 10303 214 3 1 1 1 }'));
ENDSEC;

DATA;
#10=CONSTRUCTIVE_GEOMETRY_REPRESENTATION_RELATIONSHIP(
'supplemental geometry','',#26,#11);
#11=CONSTRUCTIVE_GEOMETRY_REPRESENTATION('supplemental geometry',(#189,
#190,#191),#311);
#12=GEOMETRICALLY_BOUNDED_WIREFRAME_SHAPE_REPRESENTATION(
'203545329mod000_00-None',(#27),#311);
#13=SHAPE_REPRESENTATION_RELATIONSHIP('None',
'relationship between 203545329mod000_00-None and 203545329mod000_00-N
one',#26,#15);
#14=SHAPE_REPRESENTATION_RELATIONSHIP('None',
'relationship between 203545329mod000_00-None and 203545329mod000_00-N
one',#26,#12);
#15=ADVANCED_BREP_SHAPE_REPRESENTATION('203545329mod000_00-None',(#38,#39),
#311);
#16=SHAPE_DEFINITION_REPRESENTATION(#17,#26);
#17=PRODUCT_DEFINITION_SHAPE('','',#18);
#18=PRODUCT_DEFINITION(' ','',#20,#19);
#19=PRODUCT_DEFINITION_CONTEXT('part definition',#25,'design');
#20=PRODUCT_DEFINITION_FORMATION_WITH_SPECIFIED_SOURCE(' ',' ',#22,
 .NOT_KNOWN.);
#21=PRODUCT_RELATED_PRODUCT_CATEGORY('part','',(#22));
#22=PRODUCT('203545329mod000_00','203545329mod000_00',' ',(#23));
#23=PRODUCT_CONTEXT(' ',#25,'mechanical');
#24=APPLICATION_PROTOCOL_DEFINITION('international standard',
'automotive_design',2010,#25);
#25=APPLICATION_CONTEXT(
'core data for automotive mechanical design processes');
#26=SHAPE_REPRESENTATION('203545329mod000_00-None',(#188),#311);
#27=GEOMETRIC_CURVE_SET('None',(#261,#262,#263,#264,#153));
#28=SURFACE_STYLE_USAGE(.BOTH.,#30);
#29=SURFACE_STYLE_USAGE(.BOTH.,#31);
#30=SURFACE_SIDE_STYLE('',(#32));
#31=SURFACE_SIDE_STYLE('',(#33));
#32=SURFACE_STYLE_FILL_AREA(#34);
#33=SURFACE_STYLE_FILL_AREA(#35);
#34=FILL_AREA_STYLE('',(#36));
#35=FILL_AREA_STYLE('',(#37));
#36=FILL_AREA_STYLE_COLOUR('',#186);
#37=FILL_AREA_STYLE_COLOUR('',#187);
#38=MANIFOLD_SOLID_BREP('NOCUT',#40);
#39=MANIFOLD_SOLID_BREP('CUT',#41);
#40=CLOSED_SHELL('',(#54,#55,#56,#57,#58,#59,#60));
#41=CLOSED_SHELL('',(#61,#62,#63,#64));
#42=TOROIDAL_SURFACE('',#203,4.84646442624947,2.00000003532079);
#43=TOROIDAL_SURFACE('',#211,2.5,0.5);
#44=CONICAL_SURFACE('',#197,2.6,45.0000000000002);
#45=CONICAL_SURFACE('',#199,2.85,30.);
#46=PLANE('',#196);
#47=PLANE('',#204);
#48=PLANE('',#206);
#49=PLANE('',#208);
#50=FACE_OUTER_BOUND('',#84,.T.);
#51=FACE_OUTER_BOUND('',#93,.T.);
#52=FACE_OUTER_BOUND('',#94,.T.);
#53=FACE_OUTER_BOUND('',#95,.T.);
#54=ADVANCED_FACE('',(#68,#69),#65,.T.);
#55=ADVANCED_FACE('',(#50),#46,.T.);
#56=ADVANCED_FACE('',(#70,#71),#44,.T.);
#57=ADVANCED_FACE('',(#72,#73),#45,.T.);
#58=ADVANCED_FACE('',(#74,#75),#66,.T.);
#59=ADVANCED_FACE('',(#76,#77),#42,.F.);
#60=ADVANCED_FACE('',(#51),#47,.F.);
#61=ADVANCED_FACE('',(#52),#48,.T.);
#62=ADVANCED_FACE('',(#53),#49,.T.);
#63=ADVANCED_FACE('',(#78,#79),#67,.T.);
#64=ADVANCED_FACE('',(#80,#81),#43,.T.);
#65=CYLINDRICAL_SURFACE('',#194,3.);
#66=CYLINDRICAL_SURFACE('',#201,2.85);
#67=CYLINDRICAL_SURFACE('',#210,3.);
#68=FACE_BOUND('',#82,.T.);
#69=FACE_BOUND('',#83,.T.);
#70=FACE_BOUND('',#85,.T.);
#71=FACE_BOUND('',#86,.T.);
#72=FACE_BOUND('',#87,.T.);
#73=FACE_BOUND('',#88,.T.);
#74=FACE_BOUND('',#89,.T.);
#75=FACE_BOUND('',#90,.T.);
#76=FACE_BOUND('',#91,.T.);
#77=FACE_BOUND('',#92,.T.);
#78=FACE_BOUND('',#96,.T.);
#79=FACE_BOUND('',#97,.T.);
#80=FACE_BOUND('',#98,.T.);
#81=FACE_BOUND('',#99,.T.);
#82=EDGE_LOOP('',(#100));
#83=EDGE_LOOP('',(#101));
#84=EDGE_LOOP('',(#102));
#85=EDGE_LOOP('',(#103));
#86=EDGE_LOOP('',(#104));
#87=EDGE_LOOP('',(#105));
#88=EDGE_LOOP('',(#106));
#89=EDGE_LOOP('',(#107));
#90=EDGE_LOOP('',(#108));
#91=EDGE_LOOP('',(#109));
#92=EDGE_LOOP('',(#110));
#93=EDGE_LOOP('',(#111));
#94=EDGE_LOOP('',(#112));
#95=EDGE_LOOP('',(#113));
#96=EDGE_LOOP('',(#114));
#97=EDGE_LOOP('',(#115));
#98=EDGE_LOOP('',(#116));
#99=EDGE_LOOP('',(#117));
#100=ORIENTED_EDGE('',*,*,#127,.T.);
#101=ORIENTED_EDGE('',*,*,#128,.T.);
#102=ORIENTED_EDGE('',*,*,#129,.T.);
#103=ORIENTED_EDGE('',*,*,#128,.F.);
#104=ORIENTED_EDGE('',*,*,#129,.F.);
#105=ORIENTED_EDGE('',*,*,#127,.F.);
#106=ORIENTED_EDGE('',*,*,#130,.T.);
#107=ORIENTED_EDGE('',*,*,#130,.F.);
#108=ORIENTED_EDGE('',*,*,#131,.T.);
#109=ORIENTED_EDGE('',*,*,#131,.F.);
#110=ORIENTED_EDGE('',*,*,#132,.T.);
#111=ORIENTED_EDGE('',*,*,#132,.F.);
#112=ORIENTED_EDGE('',*,*,#133,.T.);
#113=ORIENTED_EDGE('',*,*,#134,.T.);
#114=ORIENTED_EDGE('',*,*,#135,.T.);
#115=ORIENTED_EDGE('',*,*,#134,.F.);
#116=ORIENTED_EDGE('',*,*,#133,.F.);
#117=ORIENTED_EDGE('',*,*,#135,.F.);
#118=VERTEX_POINT('',#282);
#119=VERTEX_POINT('',#284);
#120=VERTEX_POINT('',#287);
#121=VERTEX_POINT('',#291);
#122=VERTEX_POINT('',#294);
#123=VERTEX_POINT('',#297);
#124=VERTEX_POINT('',#301);
#125=VERTEX_POINT('',#304);
#126=VERTEX_POINT('',#307);
#127=EDGE_CURVE('',#118,#118,#136,.T.);
#128=EDGE_CURVE('',#119,#119,#137,.T.);
#129=EDGE_CURVE('',#120,#120,#138,.T.);
#130=EDGE_CURVE('',#121,#121,#139,.T.);
#131=EDGE_CURVE('',#122,#122,#140,.T.);
#132=EDGE_CURVE('',#123,#123,#141,.T.);
#133=EDGE_CURVE('',#124,#124,#142,.T.);
#134=EDGE_CURVE('',#125,#125,#143,.T.);
#135=EDGE_CURVE('',#126,#126,#144,.T.);
#136=CIRCLE('',#192,3.);
#137=CIRCLE('',#193,3.);
#138=CIRCLE('',#195,2.6);
#139=CIRCLE('',#198,2.85);
#140=CIRCLE('',#200,2.85);
#141=CIRCLE('',#202,3.00000004343375);
#142=CIRCLE('',#205,2.5);
#143=CIRCLE('',#207,3.);
#144=CIRCLE('',#209,3.);
#145=CURVE_STYLE('',#149,POSITIVE_LENGTH_MEASURE(0.18),#155);
#146=CURVE_STYLE('',#150,POSITIVE_LENGTH_MEASURE(0.18),#185);
#147=CURVE_STYLE('',#151,POSITIVE_LENGTH_MEASURE(0.18),#185);
#148=CURVE_STYLE('',#152,POSITIVE_LENGTH_MEASURE(0.18),#185);
#149=DRAUGHTING_PRE_DEFINED_CURVE_FONT('continuous');
#150=DRAUGHTING_PRE_DEFINED_CURVE_FONT('continuous');
#151=DRAUGHTING_PRE_DEFINED_CURVE_FONT('continuous');
#152=DRAUGHTING_PRE_DEFINED_CURVE_FONT('continuous');
#153=TRIMMED_CURVE('CUTTING PART LINE',#154,(PARAMETER_VALUE(0.)),(
PARAMETER_VALUE(1.)),.T.,.PARAMETER.);
#154=(
BOUNDED_CURVE()
B_SPLINE_CURVE(3,(#265,#266,#267,#268,#269,#270,#271,#272,#273,#274,#275,
#276,#277),.UNSPECIFIED.,.F.,.F.)
B_SPLINE_CURVE_WITH_KNOTS((4,3,3,3,4),(0.,0.212126901891824,0.278768533547433,
0.745447717728114,1.),.UNSPECIFIED.)
CURVE()
GEOMETRIC_REPRESENTATION_ITEM()
RATIONAL_B_SPLINE_CURVE((1.,1.,1.,1.,0.804737854124365,0.804737854124365,
1.,1.,1.,1.,1.,1.,1.))
REPRESENTATION_ITEM('CUTTING PART LINE')
);
#155=DRAUGHTING_PRE_DEFINED_COLOUR('blue');
#156=PRESENTATION_LAYER_ASSIGNMENT('1','Layer 1',(#261,#262,#263,#264,#153,
#189,#190,#191,#38,#39));
#157=STYLED_ITEM('',(#167),#261);
#158=STYLED_ITEM('',(#168),#262);
#159=STYLED_ITEM('',(#169),#263);
#160=STYLED_ITEM('',(#170),#264);
#161=STYLED_ITEM('',(#171),#153);
#162=STYLED_ITEM('',(#172),#189);
#163=STYLED_ITEM('',(#173),#190);
#164=STYLED_ITEM('',(#174),#191);
#165=STYLED_ITEM('',(#175),#38);
#166=STYLED_ITEM('',(#176),#39);
#167=PRESENTATION_STYLE_ASSIGNMENT((#177));
#168=PRESENTATION_STYLE_ASSIGNMENT((#178));
#169=PRESENTATION_STYLE_ASSIGNMENT((#179));
#170=PRESENTATION_STYLE_ASSIGNMENT((#180));
#171=PRESENTATION_STYLE_ASSIGNMENT((#145));
#172=PRESENTATION_STYLE_ASSIGNMENT((#146));
#173=PRESENTATION_STYLE_ASSIGNMENT((#147));
#174=PRESENTATION_STYLE_ASSIGNMENT((#148));
#175=PRESENTATION_STYLE_ASSIGNMENT((#28));
#176=PRESENTATION_STYLE_ASSIGNMENT((#29));
#177=POINT_STYLE('',#181,POSITIVE_LENGTH_MEASURE(3.),#185);
#178=POINT_STYLE('',#182,POSITIVE_LENGTH_MEASURE(3.),#185);
#179=POINT_STYLE('',#183,POSITIVE_LENGTH_MEASURE(3.),#185);
#180=POINT_STYLE('',#184,POSITIVE_LENGTH_MEASURE(3.),#155);
#181=PRE_DEFINED_POINT_MARKER_SYMBOL('plus');
#182=PRE_DEFINED_POINT_MARKER_SYMBOL('plus');
#183=PRE_DEFINED_POINT_MARKER_SYMBOL('plus');
#184=PRE_DEFINED_POINT_MARKER_SYMBOL('plus');
#185=COLOUR_RGB('Strong Stone',0.576470588235294,0.54508278019379,0.392156862745098);
#186=COLOUR_RGB('Medium Gray',0.501960784313725,0.501960784313725,0.501960784313725);
#187=COLOUR_RGB('Light Gray',0.8,0.8,0.8);
#188=AXIS2_PLACEMENT_3D('',#260,#212,#213);
#189=AXIS2_PLACEMENT_3D('PCS',#278,#214,#215);
#190=AXIS2_PLACEMENT_3D('CIP',#279,#216,#217);
#191=AXIS2_PLACEMENT_3D('MCS',#280,#218,#219);
#192=AXIS2_PLACEMENT_3D('',#281,#220,#221);
#193=AXIS2_PLACEMENT_3D('',#283,#222,#223);
#194=AXIS2_PLACEMENT_3D('',#285,#224,#225);
#195=AXIS2_PLACEMENT_3D('',#286,#226,#227);
#196=AXIS2_PLACEMENT_3D('',#288,#228,#229);
#197=AXIS2_PLACEMENT_3D('',#289,#230,#231);
#198=AXIS2_PLACEMENT_3D('',#290,#232,#233);
#199=AXIS2_PLACEMENT_3D('',#292,#234,#235);
#200=AXIS2_PLACEMENT_3D('',#293,#236,#237);
#201=AXIS2_PLACEMENT_3D('',#295,#238,#239);
#202=AXIS2_PLACEMENT_3D('',#296,#240,#241);
#203=AXIS2_PLACEMENT_3D('',#298,#242,#243);
#204=AXIS2_PLACEMENT_3D('',#299,#244,#245);
#205=AXIS2_PLACEMENT_3D('',#300,#246,#247);
#206=AXIS2_PLACEMENT_3D('',#302,#248,#249);
#207=AXIS2_PLACEMENT_3D('',#303,#250,#251);
#208=AXIS2_PLACEMENT_3D('',#305,#252,#253);
#209=AXIS2_PLACEMENT_3D('',#306,#254,#255);
#210=AXIS2_PLACEMENT_3D('',#308,#256,#257);
#211=AXIS2_PLACEMENT_3D('',#309,#258,#259);
#212=DIRECTION('',(0.,0.,1.));
#213=DIRECTION('',(1.,0.,0.));
#214=DIRECTION('',(0.,0.,1.));
#215=DIRECTION('',(1.,0.,0.));
#216=DIRECTION('',(0.,0.,1.));
#217=DIRECTION('',(1.,0.,0.));
#218=DIRECTION('',(0.,0.,1.));
#219=DIRECTION('',(1.,0.,0.));
#220=DIRECTION('',(0.,0.,1.));
#221=DIRECTION('',(1.,0.,0.));
#222=DIRECTION('',(0.,0.,-1.));
#223=DIRECTION('',(1.,0.,0.));
#224=DIRECTION('',(0.,0.,1.));
#225=DIRECTION('',(1.,0.,0.));
#226=DIRECTION('',(0.,0.,1.));
#227=DIRECTION('',(1.,0.,0.));
#228=DIRECTION('',(0.,0.,1.));
#229=DIRECTION('',(1.,0.,0.));
#230=DIRECTION('',(0.,0.,-1.));
#231=DIRECTION('',(-1.,0.,0.));
#232=DIRECTION('',(0.,0.,1.));
#233=DIRECTION('',(1.,0.,0.));
#234=DIRECTION('',(0.,0.,1.));
#235=DIRECTION('',(1.,0.,-7.17568840179845E-17));
#236=DIRECTION('',(0.,0.,1.));
#237=DIRECTION('',(1.,0.,0.));
#238=DIRECTION('',(0.,0.,1.));
#239=DIRECTION('',(1.,0.,0.));
#240=DIRECTION('',(0.,0.,1.));
#241=DIRECTION('',(1.,0.,0.));
#242=DIRECTION('',(0.,0.,1.));
#243=DIRECTION('',(1.,0.,0.));
#244=DIRECTION('',(0.,0.,1.));
#245=DIRECTION('',(1.,0.,0.));
#246=DIRECTION('',(0.,0.,-1.));
#247=DIRECTION('',(-1.,0.,0.));
#248=DIRECTION('',(0.,0.,-1.));
#249=DIRECTION('',(-1.,0.,0.));
#250=DIRECTION('',(0.,0.,1.));
#251=DIRECTION('',(-1.,1.22464679914735E-16,0.));
#252=DIRECTION('',(0.,0.,1.));
#253=DIRECTION('',(1.,0.,0.));
#254=DIRECTION('',(0.,0.,1.));
#255=DIRECTION('',(-1.,0.,0.));
#256=DIRECTION('',(0.,0.,1.));
#257=DIRECTION('',(1.,0.,0.));
#258=DIRECTION('',(0.,0.,-1.));
#259=DIRECTION('',(-1.,0.,0.));
#260=CARTESIAN_POINT('',(0.,0.,0.));
#261=CARTESIAN_POINT('PCS',(0.,0.,0.));
#262=CARTESIAN_POINT('CIP',(0.,0.,-75.));
#263=CARTESIAN_POINT('MCS',(0.,0.,-36.));
#264=CARTESIAN_POINT('CRP',(3.,0.,-75.));
#265=CARTESIAN_POINT('',(0.,0.,-75.));
#266=CARTESIAN_POINT('',(0.833333333333333,0.,-75.));
#267=CARTESIAN_POINT('',(1.66666666666667,0.,-75.));
#268=CARTESIAN_POINT('',(2.5,0.,-75.));
#269=CARTESIAN_POINT('',(2.79289321881345,0.,-75.));
#270=CARTESIAN_POINT('',(3.,0.,-74.7928932188135));
#271=CARTESIAN_POINT('',(3.,0.,-74.5));
#272=CARTESIAN_POINT('',(3.,0.,-72.6666666666667));
#273=CARTESIAN_POINT('',(3.,0.,-70.8333333333333));
#274=CARTESIAN_POINT('',(3.,0.,-69.));
#275=CARTESIAN_POINT('',(2.,0.,-69.));
#276=CARTESIAN_POINT('',(1.,0.,-69.));
#277=CARTESIAN_POINT('',(0.,0.,-69.));
#278=CARTESIAN_POINT('',(0.,0.,0.));
#279=CARTESIAN_POINT('',(0.,0.,-75.));
#280=CARTESIAN_POINT('',(0.,0.,-36.));
#281=CARTESIAN_POINT('',(0.,0.,-50.7401923788647));
#282=CARTESIAN_POINT('',(3.,0.,-50.7401923788647));
#283=CARTESIAN_POINT('',(0.,0.,-0.399999999999998));
#284=CARTESIAN_POINT('',(3.,0.,-0.399999999999998));
#285=CARTESIAN_POINT('',(0.,0.,-56.1));
#286=CARTESIAN_POINT('',(0.,0.,0.));
#287=CARTESIAN_POINT('',(2.6,0.,0.));
#288=CARTESIAN_POINT('',(0.,0.,0.));
#289=CARTESIAN_POINT('',(0.,0.,0.));
#290=CARTESIAN_POINT('',(0.,0.,-51.));
#291=CARTESIAN_POINT('',(2.85,0.,-51.));
#292=CARTESIAN_POINT('',(0.,0.,-51.));
#293=CARTESIAN_POINT('',(0.,0.,-68.3503842402445));
#294=CARTESIAN_POINT('',(2.85,0.,-68.3503842402445));
#295=CARTESIAN_POINT('',(0.,0.,-70.8));
#296=CARTESIAN_POINT('',(0.,0.,-68.9999999819232));
#297=CARTESIAN_POINT('',(3.00000004343375,0.,-68.9999999819232));
#298=CARTESIAN_POINT('',(0.,0.,-68.2315148328955));
#299=CARTESIAN_POINT('',(0.,0.,-69.));
#300=CARTESIAN_POINT('',(0.,0.,-75.));
#301=CARTESIAN_POINT('',(-2.5,0.,-75.));
#302=CARTESIAN_POINT('',(0.,0.,-75.));
#303=CARTESIAN_POINT('',(0.,0.,-69.));
#304=CARTESIAN_POINT('',(-3.,3.67394039744206E-16,-69.));
#305=CARTESIAN_POINT('',(0.,0.,-69.));
#306=CARTESIAN_POINT('',(0.,0.,-74.5));
#307=CARTESIAN_POINT('',(-3.,0.,-74.5));
#308=CARTESIAN_POINT('',(0.,0.,-75.6));
#309=CARTESIAN_POINT('',(0.,0.,-74.5));
#310=MECHANICAL_DESIGN_GEOMETRIC_PRESENTATION_REPRESENTATION('',(#157,#158,
#159,#160,#161,#162,#163,#164,#165,#166),#311);
#311=(
GEOMETRIC_REPRESENTATION_CONTEXT(3)
GLOBAL_UNCERTAINTY_ASSIGNED_CONTEXT((#312))
GLOBAL_UNIT_ASSIGNED_CONTEXT((#318,#314,#313))
REPRESENTATION_CONTEXT('1622543234480','TOP_LEVEL_ASSEMBLY_PART')
);
#312=UNCERTAINTY_MEASURE_WITH_UNIT(LENGTH_MEASURE(2.E-5),#318,
'DISTANCE_ACCURACY_VALUE','Maximum Tolerance applied to model');
#313=(
NAMED_UNIT(*)
SI_UNIT($,.STERADIAN.)
SOLID_ANGLE_UNIT()
);
#314=(
CONVERSION_BASED_UNIT('DEGREE',#316)
NAMED_UNIT(#315)
PLANE_ANGLE_UNIT()
);
#315=DIMENSIONAL_EXPONENTS(0.,0.,0.,0.,0.,0.,0.);
#316=PLANE_ANGLE_MEASURE_WITH_UNIT(PLANE_ANGLE_MEASURE(0.0174532925),#317);
#317=(
NAMED_UNIT(*)
PLANE_ANGLE_UNIT()
SI_UNIT($,.RADIAN.)
);
#318=(
LENGTH_UNIT()
NAMED_UNIT(*)
SI_UNIT(.MILLI.,.METRE.)
);
ENDSEC;
END-ISO-10303-21;
