ISO-10303-21;
HEADER;
/* Generated by software containing ST-Developer
 * from STEP Tools, Inc. (www.steptools.com) 
 */
/* OPTION: using custom schema-name function */

FILE_DESCRIPTION(
/* description */ (''),
/* implementation_level */ '2;1');

FILE_NAME(
/* name */ 'aaa359489_a.stp',
/* time_stamp */ '2021-05-19T14:30:01+02:00',
/* author */ (''),
/* organization */ ('SMS'),
/* preprocessor_version */ 'ST-DEVELOPER v16.7',
/* originating_system */ 'SIEMENS PLM Software NX 12.0',
/* authorisation */ '');

FILE_SCHEMA (('AUTOMOTIVE_DESIGN { 1 0 10303 214 3 1 1 1 }'));
ENDSEC;

DATA;
#10=CONSTRUCTIVE_GEOMETRY_REPRESENTATION_RELATIONSHIP(
'supplemental geometry','',#26,#11);
#11=CONSTRUCTIVE_GEOMETRY_REPRESENTATION('supplemental geometry',(#121,
#122),#198);
#12=GEOMETRICALLY_BOUNDED_WIREFRAME_SHAPE_REPRESENTATION(
'AAA359489_A-None',(#27),#198);
#13=SHAPE_REPRESENTATION_RELATIONSHIP('None',
'relationship between AAA359489_A-None and AAA359489_A-None',#26,#15);
#14=SHAPE_REPRESENTATION_RELATIONSHIP('None',
'relationship between AAA359489_A-None and AAA359489_A-None',#26,#12);
#15=ADVANCED_BREP_SHAPE_REPRESENTATION('AAA359489_A-None',(#33),#198);
#16=SHAPE_DEFINITION_REPRESENTATION(#17,#26);
#17=PRODUCT_DEFINITION_SHAPE('','',#18);
#18=PRODUCT_DEFINITION(' ','',#20,#19);
#19=PRODUCT_DEFINITION_CONTEXT('part definition',#25,'design');
#20=PRODUCT_DEFINITION_FORMATION_WITH_SPECIFIED_SOURCE(' ',' ',#22,
 .NOT_KNOWN.);
#21=PRODUCT_RELATED_PRODUCT_CATEGORY('part','',(#22));
#22=PRODUCT('AAA359489_A','AAA359489_A',' ',(#23));
#23=PRODUCT_CONTEXT(' ',#25,'mechanical');
#24=APPLICATION_PROTOCOL_DEFINITION('international standard',
'automotive_design',2010,#25);
#25=APPLICATION_CONTEXT(
'core data for automotive mechanical design processes');
#26=SHAPE_REPRESENTATION('AAA359489_A-None',(#120),#198);
#27=GEOMETRIC_CURVE_SET('None',(#162,#163,#99));
#28=SURFACE_STYLE_USAGE(.BOTH.,#29);
#29=SURFACE_SIDE_STYLE('',(#30));
#30=SURFACE_STYLE_FILL_AREA(#31);
#31=FILL_AREA_STYLE('',(#32));
#32=FILL_AREA_STYLE_COLOUR('',#119);
#33=MANIFOLD_SOLID_BREP('CUT',#34);
#34=CLOSED_SHELL('',(#47,#48,#49,#50,#51));
#35=LINE('',#192,#37);
#36=LINE('',#193,#38);
#37=VECTOR('',#153,1.);
#38=VECTOR('',#154,1.);
#39=PLANE('',#129);
#40=PLANE('',#130);
#41=PLANE('',#131);
#42=PLANE('',#132);
#43=FACE_OUTER_BOUND('',#57,.T.);
#44=FACE_OUTER_BOUND('',#58,.T.);
#45=FACE_OUTER_BOUND('',#59,.T.);
#46=FACE_OUTER_BOUND('',#60,.T.);
#47=ADVANCED_FACE('',(#53,#54),#52,.T.);
#48=ADVANCED_FACE('',(#43),#39,.T.);
#49=ADVANCED_FACE('',(#44),#40,.F.);
#50=ADVANCED_FACE('',(#45),#41,.F.);
#51=ADVANCED_FACE('',(#46),#42,.F.);
#52=CONICAL_SURFACE('',#128,3.18727845609029,7.00000000000001);
#53=FACE_BOUND('',#55,.T.);
#54=FACE_BOUND('',#56,.T.);
#55=EDGE_LOOP('',(#63,#64,#65,#66));
#56=EDGE_LOOP('',(#67));
#57=EDGE_LOOP('',(#68));
#58=EDGE_LOOP('',(#69,#70,#71,#72));
#59=EDGE_LOOP('',(#73,#74));
#60=EDGE_LOOP('',(#75,#76));
#61=ELLIPSE('',#124,2.77984471955114,2.40135947317907);
#62=ELLIPSE('',#126,2.77984471955114,2.40135947317907);
#63=ORIENTED_EDGE('',*,*,#82,.T.);
#64=ORIENTED_EDGE('',*,*,#83,.F.);
#65=ORIENTED_EDGE('',*,*,#84,.T.);
#66=ORIENTED_EDGE('',*,*,#85,.F.);
#67=ORIENTED_EDGE('',*,*,#86,.T.);
#68=ORIENTED_EDGE('',*,*,#86,.F.);
#69=ORIENTED_EDGE('',*,*,#84,.F.);
#70=ORIENTED_EDGE('',*,*,#87,.F.);
#71=ORIENTED_EDGE('',*,*,#82,.F.);
#72=ORIENTED_EDGE('',*,*,#88,.F.);
#73=ORIENTED_EDGE('',*,*,#88,.T.);
#74=ORIENTED_EDGE('',*,*,#85,.T.);
#75=ORIENTED_EDGE('',*,*,#87,.T.);
#76=ORIENTED_EDGE('',*,*,#83,.T.);
#77=VERTEX_POINT('',#181);
#78=VERTEX_POINT('',#182);
#79=VERTEX_POINT('',#184);
#80=VERTEX_POINT('',#186);
#81=VERTEX_POINT('',#189);
#82=EDGE_CURVE('',#77,#78,#89,.T.);
#83=EDGE_CURVE('',#79,#78,#61,.T.);
#84=EDGE_CURVE('',#79,#80,#90,.T.);
#85=EDGE_CURVE('',#77,#80,#62,.T.);
#86=EDGE_CURVE('',#81,#81,#91,.T.);
#87=EDGE_CURVE('',#78,#79,#35,.T.);
#88=EDGE_CURVE('',#80,#77,#36,.T.);
#89=CIRCLE('',#123,2.40391295752976);
#90=CIRCLE('',#125,2.40391295752976);
#91=CIRCLE('',#127,3.175);
#92=CURVE_STYLE('',#96,POSITIVE_LENGTH_MEASURE(0.18),#95);
#93=CURVE_STYLE('',#97,POSITIVE_LENGTH_MEASURE(0.18),#118);
#94=CURVE_STYLE('',#98,POSITIVE_LENGTH_MEASURE(0.18),#118);
#95=DRAUGHTING_PRE_DEFINED_COLOUR('blue');
#96=DRAUGHTING_PRE_DEFINED_CURVE_FONT('continuous');
#97=DRAUGHTING_PRE_DEFINED_CURVE_FONT('continuous');
#98=DRAUGHTING_PRE_DEFINED_CURVE_FONT('continuous');
#99=TRIMMED_CURVE('CUTTING EDGE LINE',#100,(PARAMETER_VALUE(0.)),(
PARAMETER_VALUE(1.)),.T.,.PARAMETER.);
#100=(
BOUNDED_CURVE()
B_SPLINE_CURVE(4,(#164,#165,#166,#167,#168,#169,#170,#171,#172,#173,#174,
#175,#176,#177),.UNSPECIFIED.,.T.,.F.)
B_SPLINE_CURVE_WITH_KNOTS((2,3,3,3,3,3,2),(-0.25,0.,0.25,0.5,0.75,1.,1.25),
 .UNSPECIFIED.)
CURVE()
GEOMETRIC_REPRESENTATION_ITEM()
RATIONAL_B_SPLINE_CURVE((0.585786437626905,0.585786437626905,0.552284749830793,
0.585786437626905,0.585786437626905,0.552284749830793,0.585786437626905,
0.585786437626905,0.552284749830793,0.585786437626905,0.585786437626905,
0.552284749830793,0.585786437626905,0.585786437626905))
REPRESENTATION_ITEM('CUTTING EDGE LINE')
);
#101=PRESENTATION_LAYER_ASSIGNMENT('1','Layer 1',(#162,#163,#99,#121,#122,
#33));
#102=STYLED_ITEM('',(#108),#162);
#103=STYLED_ITEM('',(#109),#163);
#104=STYLED_ITEM('',(#110),#99);
#105=STYLED_ITEM('',(#111),#121);
#106=STYLED_ITEM('',(#112),#122);
#107=STYLED_ITEM('',(#113),#33);
#108=PRESENTATION_STYLE_ASSIGNMENT((#114));
#109=PRESENTATION_STYLE_ASSIGNMENT((#115));
#110=PRESENTATION_STYLE_ASSIGNMENT((#92));
#111=PRESENTATION_STYLE_ASSIGNMENT((#93));
#112=PRESENTATION_STYLE_ASSIGNMENT((#94));
#113=PRESENTATION_STYLE_ASSIGNMENT((#28));
#114=POINT_STYLE('',#116,POSITIVE_LENGTH_MEASURE(3.),#118);
#115=POINT_STYLE('',#117,POSITIVE_LENGTH_MEASURE(3.),#118);
#116=PRE_DEFINED_POINT_MARKER_SYMBOL('plus');
#117=PRE_DEFINED_POINT_MARKER_SYMBOL('plus');
#118=COLOUR_RGB('Strong Stone',0.576470588235294,0.54508278019379,0.392156862745098);
#119=COLOUR_RGB('Light Gray',0.8,0.8,0.8);
#120=AXIS2_PLACEMENT_3D('',#161,#133,#134);
#121=AXIS2_PLACEMENT_3D('MCS',#178,#135,#136);
#122=AXIS2_PLACEMENT_3D('PCS',#179,#137,#138);
#123=AXIS2_PLACEMENT_3D('',#180,#139,#140);
#124=AXIS2_PLACEMENT_3D('',#183,#141,#142);
#125=AXIS2_PLACEMENT_3D('',#185,#143,#144);
#126=AXIS2_PLACEMENT_3D('',#187,#145,#146);
#127=AXIS2_PLACEMENT_3D('',#188,#147,#148);
#128=AXIS2_PLACEMENT_3D('',#190,#149,#150);
#129=AXIS2_PLACEMENT_3D('',#191,#151,#152);
#130=AXIS2_PLACEMENT_3D('',#194,#155,#156);
#131=AXIS2_PLACEMENT_3D('',#195,#157,#158);
#132=AXIS2_PLACEMENT_3D('',#196,#159,#160);
#133=DIRECTION('',(0.,0.,1.));
#134=DIRECTION('',(1.,0.,0.));
#135=DIRECTION('',(0.,0.,1.));
#136=DIRECTION('',(1.,0.,0.));
#137=DIRECTION('',(0.,0.,1.));
#138=DIRECTION('',(1.,0.,0.));
#139=DIRECTION('',(0.,0.,1.));
#140=DIRECTION('',(1.,0.,0.));
#141=DIRECTION('',(0.5,0.,-0.866025403784438));
#142=DIRECTION('',(0.866025403784438,0.,0.5));
#143=DIRECTION('',(0.,0.,1.));
#144=DIRECTION('',(1.,0.,0.));
#145=DIRECTION('',(-0.499999999999999,0.,-0.866025403784439));
#146=DIRECTION('',(-0.866025403784439,0.,0.499999999999999));
#147=DIRECTION('',(0.,0.,-1.));
#148=DIRECTION('',(1.,0.,0.));
#149=DIRECTION('',(0.,0.,1.));
#150=DIRECTION('',(1.,0.,-8.45608542264209E-17));
#151=DIRECTION('',(0.,0.,1.));
#152=DIRECTION('',(1.,0.,0.));
#153=DIRECTION('',(0.,1.,0.));
#154=DIRECTION('',(0.,-1.,0.));
#155=DIRECTION('',(0.,0.,1.));
#156=DIRECTION('',(1.,0.,0.));
#157=DIRECTION('',(0.499999999999999,0.,0.866025403784439));
#158=DIRECTION('',(0.866025403784439,0.,-0.499999999999999));
#159=DIRECTION('',(-0.5,0.,0.866025403784438));
#160=DIRECTION('',(0.866025403784438,0.,0.5));
#161=CARTESIAN_POINT('',(0.,0.,0.));
#162=CARTESIAN_POINT('',(0.,0.,0.));
#163=CARTESIAN_POINT('',(-3.175,-3.175,0.));
#164=CARTESIAN_POINT('',(3.175,1.12253201513364,0.));
#165=CARTESIAN_POINT('',(3.175,-1.12253201513365,0.));
#166=CARTESIAN_POINT('',(2.61373399243318,-2.61373399243318,0.));
#167=CARTESIAN_POINT('',(1.12253201513364,-3.175,0.));
#168=CARTESIAN_POINT('',(-1.12253201513364,-3.175,0.));
#169=CARTESIAN_POINT('',(-2.61373399243318,-2.61373399243318,0.));
#170=CARTESIAN_POINT('',(-3.175,-1.12253201513364,0.));
#171=CARTESIAN_POINT('',(-3.175,1.12253201513364,0.));
#172=CARTESIAN_POINT('',(-2.61373399243318,2.61373399243318,0.));
#173=CARTESIAN_POINT('',(-1.12253201513364,3.175,0.));
#174=CARTESIAN_POINT('',(1.12253201513364,3.175,0.));
#175=CARTESIAN_POINT('',(2.61373399243318,2.61373399243318,0.));
#176=CARTESIAN_POINT('',(3.175,1.12253201513364,0.));
#177=CARTESIAN_POINT('',(3.175,-1.12253201513365,0.));
#178=CARTESIAN_POINT('',(0.,0.,0.));
#179=CARTESIAN_POINT('',(-3.175,-3.175,0.));
#180=CARTESIAN_POINT('',(0.,0.,-6.28));
#181=CARTESIAN_POINT('',(-0.121243556529821,-2.40085349560932,-6.28));
#182=CARTESIAN_POINT('',(0.121243556529821,-2.40085349560932,-6.28));
#183=CARTESIAN_POINT('',(0.170661006634173,0.,-6.25146882187959));
#184=CARTESIAN_POINT('',(0.121243556529821,2.40085349560932,-6.28));
#185=CARTESIAN_POINT('',(0.,0.,-6.28));
#186=CARTESIAN_POINT('',(-0.121243556529821,2.40085349560932,-6.28));
#187=CARTESIAN_POINT('',(-0.170661006634171,0.,-6.25146882187959));
#188=CARTESIAN_POINT('',(0.,0.,0.));
#189=CARTESIAN_POINT('',(3.175,0.,0.));
#190=CARTESIAN_POINT('',(0.,0.,0.0999999999999996));
#191=CARTESIAN_POINT('',(0.,0.,0.));
#192=CARTESIAN_POINT('',(0.121243556529821,0.,-6.28));
#193=CARTESIAN_POINT('',(-0.121243556529821,0.,-6.28));
#194=CARTESIAN_POINT('',(0.,0.,-6.28));
#195=CARTESIAN_POINT('',(0.,7.,-6.35));
#196=CARTESIAN_POINT('',(7.,7.,-2.30854811567262));
#197=MECHANICAL_DESIGN_GEOMETRIC_PRESENTATION_REPRESENTATION('',(#102,#103,
#104,#105,#106,#107),#198);
#198=(
GEOMETRIC_REPRESENTATION_CONTEXT(3)
GLOBAL_UNCERTAINTY_ASSIGNED_CONTEXT((#199))
GLOBAL_UNIT_ASSIGNED_CONTEXT((#205,#201,#200))
REPRESENTATION_CONTEXT('aaa359489_a','TOP_LEVEL_ASSEMBLY_PART')
);
#199=UNCERTAINTY_MEASURE_WITH_UNIT(LENGTH_MEASURE(2.E-5),#205,
'DISTANCE_ACCURACY_VALUE','Maximum Tolerance applied to model');
#200=(
NAMED_UNIT(*)
SI_UNIT($,.STERADIAN.)
SOLID_ANGLE_UNIT()
);
#201=(
CONVERSION_BASED_UNIT('DEGREE',#203)
NAMED_UNIT(#202)
PLANE_ANGLE_UNIT()
);
#202=DIMENSIONAL_EXPONENTS(0.,0.,0.,0.,0.,0.,0.);
#203=PLANE_ANGLE_MEASURE_WITH_UNIT(PLANE_ANGLE_MEASURE(0.0174532925),#204);
#204=(
NAMED_UNIT(*)
PLANE_ANGLE_UNIT()
SI_UNIT($,.RADIAN.)
);
#205=(
LENGTH_UNIT()
NAMED_UNIT(*)
SI_UNIT(.MILLI.,.METRE.)
);
ENDSEC;
END-ISO-10303-21;
