ISO-10303-21;
HEADER;
/* Generated by software containing ST-Developer
 * from STEP Tools, Inc. (www.steptools.com) 
 */
/* OPTION: using custom schema-name function */

FILE_DESCRIPTION(
/* description */ (''),
/* implementation_level */ '2;1');

FILE_NAME(
/* name */ 'tb_20210315_123241_as_1.stp',
/* time_stamp */ '2021-03-15T12:35:06+01:00',
/* author */ (''),
/* organization */ ('SMS'),
/* preprocessor_version */ 'ST-DEVELOPER v16.7',
/* originating_system */ 'SIEMENS PLM Software NX 12.0',
/* authorisation */ '');

FILE_SCHEMA (('AUTOMOTIVE_DESIGN { 1 0 10303 214 3 1 1 1 }'));
ENDSEC;

DATA;
#10=GEOMETRICALLY_BOUNDED_WIREFRAME_SHAPE_REPRESENTATION(
'TB_20210315_123241_AS_1-None',(#25),#370);
#11=SHAPE_REPRESENTATION_RELATIONSHIP('None',
'relationship between TB_20210315_123241_AS_1-None and TB_20210315_123
241_AS_1-None',#24,#13);
#12=SHAPE_REPRESENTATION_RELATIONSHIP('None',
'relationship between TB_20210315_123241_AS_1-None and TB_20210315_123
241_AS_1-None',#24,#10);
#13=ADVANCED_BREP_SHAPE_REPRESENTATION('TB_20210315_123241_AS_1-None',(#31),
#370);
#14=SHAPE_DEFINITION_REPRESENTATION(#15,#24);
#15=PRODUCT_DEFINITION_SHAPE('','',#16);
#16=PRODUCT_DEFINITION(' ','',#18,#17);
#17=PRODUCT_DEFINITION_CONTEXT('part definition',#23,'design');
#18=PRODUCT_DEFINITION_FORMATION_WITH_SPECIFIED_SOURCE(' ',' ',#20,
 .NOT_KNOWN.);
#19=PRODUCT_RELATED_PRODUCT_CATEGORY('part','',(#20));
#20=PRODUCT('TB_20210315_123241_AS_1','TB_20210315_123241_AS_1',' ',(#21));
#21=PRODUCT_CONTEXT(' ',#23,'mechanical');
#22=APPLICATION_PROTOCOL_DEFINITION('international standard',
'automotive_design',2010,#23);
#23=APPLICATION_CONTEXT(
'core data for automotive mechanical design processes');
#24=SHAPE_REPRESENTATION('TB_20210315_123241_AS_1-None',(#268),#370);
#25=GEOMETRIC_CURVE_SET('None',(#328,#140,#141,#142,#143,#144,#145,#146,
#147,#148,#149,#150,#151,#152,#153,#154,#155,#156,#157,#158,#159,#160,#161,
#162));
#26=SURFACE_STYLE_USAGE(.BOTH.,#27);
#27=SURFACE_SIDE_STYLE('',(#28));
#28=SURFACE_STYLE_FILL_AREA(#29);
#29=FILL_AREA_STYLE('',(#30));
#30=FILL_AREA_STYLE_COLOUR('',#267);
#31=MANIFOLD_SOLID_BREP('TOOLBODY_SOLID',#32);
#32=CLOSED_SHELL('',(#37,#38,#39,#40,#41,#42));
#33=VERTEX_LOOP('',#82);
#34=CYLINDRICAL_SURFACE('',#278,1.5);
#35=PLANE('',#275);
#36=FACE_OUTER_BOUND('',#61,.T.);
#37=ADVANCED_FACE('',(#47,#48),#43,.T.);
#38=ADVANCED_FACE('',(#49,#50),#44,.T.);
#39=ADVANCED_FACE('',(#36),#35,.T.);
#40=ADVANCED_FACE('',(#51,#52),#45,.T.);
#41=ADVANCED_FACE('SHANK',(#53,#54),#34,.T.);
#42=ADVANCED_FACE('',(#55,#56),#46,.T.);
#43=CONICAL_SURFACE('',#271,1.05033873252448,0.0776317286399884);
#44=CONICAL_SURFACE('',#273,1.02714503903918,18.3306757563255);
#45=CONICAL_SURFACE('',#277,1.5,59.9999999999997);
#46=CONICAL_SURFACE('',#279,1.77635683940025E-15,58.9961372309426);
#47=FACE_BOUND('',#57,.T.);
#48=FACE_BOUND('',#58,.T.);
#49=FACE_BOUND('',#59,.T.);
#50=FACE_BOUND('',#60,.T.);
#51=FACE_BOUND('',#62,.T.);
#52=FACE_BOUND('',#63,.T.);
#53=FACE_BOUND('',#64,.T.);
#54=FACE_BOUND('',#65,.T.);
#55=FACE_BOUND('',#33,.T.);
#56=FACE_BOUND('',#66,.T.);
#57=EDGE_LOOP('',(#67));
#58=EDGE_LOOP('',(#68));
#59=EDGE_LOOP('',(#69));
#60=EDGE_LOOP('',(#70));
#61=EDGE_LOOP('',(#71));
#62=EDGE_LOOP('',(#72));
#63=EDGE_LOOP('',(#73));
#64=EDGE_LOOP('',(#74));
#65=EDGE_LOOP('',(#75));
#66=EDGE_LOOP('',(#76));
#67=ORIENTED_EDGE('',*,*,#83,.T.);
#68=ORIENTED_EDGE('',*,*,#84,.F.);
#69=ORIENTED_EDGE('',*,*,#85,.T.);
#70=ORIENTED_EDGE('',*,*,#84,.T.);
#71=ORIENTED_EDGE('',*,*,#86,.F.);
#72=ORIENTED_EDGE('',*,*,#86,.T.);
#73=ORIENTED_EDGE('',*,*,#87,.F.);
#74=ORIENTED_EDGE('',*,*,#87,.T.);
#75=ORIENTED_EDGE('',*,*,#85,.F.);
#76=ORIENTED_EDGE('',*,*,#83,.F.);
#77=VERTEX_POINT('',#353);
#78=VERTEX_POINT('',#355);
#79=VERTEX_POINT('',#358);
#80=VERTEX_POINT('',#361);
#81=VERTEX_POINT('',#364);
#82=VERTEX_POINT('',#367);
#83=EDGE_CURVE('',#77,#77,#88,.T.);
#84=EDGE_CURVE('',#78,#78,#89,.T.);
#85=EDGE_CURVE('',#79,#79,#90,.T.);
#86=EDGE_CURVE('',#80,#80,#91,.T.);
#87=EDGE_CURVE('',#81,#81,#92,.T.);
#88=CIRCLE('',#269,1.04914573469243);
#89=CIRCLE('',#270,1.02714503910821);
#90=CIRCLE('',#272,1.5);
#91=CIRCLE('',#274,1.35);
#92=CIRCLE('',#276,1.5);
#93=COLOUR_RGB('Deep Blue',0.,0.,0.752941176470588);
#94=CURVE_STYLE('',#117,POSITIVE_LENGTH_MEASURE(0.18),#267);
#95=CURVE_STYLE('',#118,POSITIVE_LENGTH_MEASURE(0.18),#267);
#96=CURVE_STYLE('',#119,POSITIVE_LENGTH_MEASURE(0.18),#267);
#97=CURVE_STYLE('',#120,POSITIVE_LENGTH_MEASURE(0.18),#267);
#98=CURVE_STYLE('',#121,POSITIVE_LENGTH_MEASURE(0.18),#267);
#99=CURVE_STYLE('',#122,POSITIVE_LENGTH_MEASURE(0.18),#267);
#100=CURVE_STYLE('',#123,POSITIVE_LENGTH_MEASURE(0.18),#267);
#101=CURVE_STYLE('',#124,POSITIVE_LENGTH_MEASURE(0.18),#267);
#102=CURVE_STYLE('',#125,POSITIVE_LENGTH_MEASURE(0.18),#267);
#103=CURVE_STYLE('',#126,POSITIVE_LENGTH_MEASURE(0.18),#267);
#104=CURVE_STYLE('',#127,POSITIVE_LENGTH_MEASURE(0.18),#267);
#105=CURVE_STYLE('',#128,POSITIVE_LENGTH_MEASURE(0.18),#267);
#106=CURVE_STYLE('',#129,POSITIVE_LENGTH_MEASURE(0.18),#267);
#107=CURVE_STYLE('',#130,POSITIVE_LENGTH_MEASURE(0.18),#267);
#108=CURVE_STYLE('',#131,POSITIVE_LENGTH_MEASURE(0.18),#93);
#109=CURVE_STYLE('',#132,POSITIVE_LENGTH_MEASURE(0.18),#93);
#110=CURVE_STYLE('',#133,POSITIVE_LENGTH_MEASURE(0.18),#93);
#111=CURVE_STYLE('',#134,POSITIVE_LENGTH_MEASURE(0.18),#93);
#112=CURVE_STYLE('',#135,POSITIVE_LENGTH_MEASURE(0.18),#93);
#113=CURVE_STYLE('',#136,POSITIVE_LENGTH_MEASURE(0.18),#93);
#114=CURVE_STYLE('',#137,POSITIVE_LENGTH_MEASURE(0.18),#93);
#115=CURVE_STYLE('',#138,POSITIVE_LENGTH_MEASURE(0.18),#93);
#116=CURVE_STYLE('',#139,POSITIVE_LENGTH_MEASURE(0.18),#93);
#117=DRAUGHTING_PRE_DEFINED_CURVE_FONT('continuous');
#118=DRAUGHTING_PRE_DEFINED_CURVE_FONT('continuous');
#119=DRAUGHTING_PRE_DEFINED_CURVE_FONT('continuous');
#120=DRAUGHTING_PRE_DEFINED_CURVE_FONT('continuous');
#121=DRAUGHTING_PRE_DEFINED_CURVE_FONT('continuous');
#122=DRAUGHTING_PRE_DEFINED_CURVE_FONT('continuous');
#123=DRAUGHTING_PRE_DEFINED_CURVE_FONT('continuous');
#124=DRAUGHTING_PRE_DEFINED_CURVE_FONT('continuous');
#125=DRAUGHTING_PRE_DEFINED_CURVE_FONT('continuous');
#126=DRAUGHTING_PRE_DEFINED_CURVE_FONT('continuous');
#127=DRAUGHTING_PRE_DEFINED_CURVE_FONT('continuous');
#128=DRAUGHTING_PRE_DEFINED_CURVE_FONT('continuous');
#129=DRAUGHTING_PRE_DEFINED_CURVE_FONT('continuous');
#130=DRAUGHTING_PRE_DEFINED_CURVE_FONT('continuous');
#131=DRAUGHTING_PRE_DEFINED_CURVE_FONT('chain double dash');
#132=DRAUGHTING_PRE_DEFINED_CURVE_FONT('continuous');
#133=DRAUGHTING_PRE_DEFINED_CURVE_FONT('continuous');
#134=DRAUGHTING_PRE_DEFINED_CURVE_FONT('continuous');
#135=DRAUGHTING_PRE_DEFINED_CURVE_FONT('continuous');
#136=DRAUGHTING_PRE_DEFINED_CURVE_FONT('chain double dash');
#137=DRAUGHTING_PRE_DEFINED_CURVE_FONT('chain double dash');
#138=DRAUGHTING_PRE_DEFINED_CURVE_FONT('continuous');
#139=DRAUGHTING_PRE_DEFINED_CURVE_FONT('chain double dash');
#140=TRIMMED_CURVE('Line16_0',#163,(PARAMETER_VALUE(0.)),(
PARAMETER_VALUE(1.)),.T.,.PARAMETER.);
#141=TRIMMED_CURVE('Line27_0',#164,(PARAMETER_VALUE(0.)),(
PARAMETER_VALUE(1.)),.T.,.PARAMETER.);
#142=TRIMMED_CURVE('Line17_0',#165,(PARAMETER_VALUE(0.)),(
PARAMETER_VALUE(1.)),.T.,.PARAMETER.);
#143=TRIMMED_CURVE('Line29_0',#166,(PARAMETER_VALUE(0.)),(
PARAMETER_VALUE(1.)),.T.,.PARAMETER.);
#144=TRIMMED_CURVE('Line31_0',#167,(PARAMETER_VALUE(0.)),(
PARAMETER_VALUE(1.)),.T.,.PARAMETER.);
#145=TRIMMED_CURVE('Line35_0',#168,(PARAMETER_VALUE(0.)),(
PARAMETER_VALUE(1.)),.T.,.PARAMETER.);
#146=TRIMMED_CURVE('Line40_0',#169,(PARAMETER_VALUE(0.)),(
PARAMETER_VALUE(1.)),.T.,.PARAMETER.);
#147=TRIMMED_CURVE('Line41_0',#170,(PARAMETER_VALUE(0.)),(
PARAMETER_VALUE(1.)),.T.,.PARAMETER.);
#148=TRIMMED_CURVE('Line20_0',#171,(PARAMETER_VALUE(0.)),(
PARAMETER_VALUE(1.)),.T.,.PARAMETER.);
#149=TRIMMED_CURVE('Line23_0',#172,(PARAMETER_VALUE(0.)),(
PARAMETER_VALUE(1.)),.T.,.PARAMETER.);
#150=TRIMMED_CURVE('Line20_0',#173,(PARAMETER_VALUE(0.)),(
PARAMETER_VALUE(1.)),.T.,.PARAMETER.);
#151=TRIMMED_CURVE('Line22_0',#174,(PARAMETER_VALUE(0.)),(
PARAMETER_VALUE(1.)),.T.,.PARAMETER.);
#152=TRIMMED_CURVE('Line23_0',#175,(PARAMETER_VALUE(0.)),(
PARAMETER_VALUE(1.)),.T.,.PARAMETER.);
#153=TRIMMED_CURVE('Line24_0',#176,(PARAMETER_VALUE(0.)),(
PARAMETER_VALUE(1.)),.T.,.PARAMETER.);
#154=TRIMMED_CURVE('Line1_0',#177,(PARAMETER_VALUE(0.)),(
PARAMETER_VALUE(1.)),.T.,.PARAMETER.);
#155=TRIMMED_CURVE('Line2_0',#178,(PARAMETER_VALUE(0.)),(
PARAMETER_VALUE(1.)),.T.,.PARAMETER.);
#156=TRIMMED_CURVE('Line11_0',#179,(PARAMETER_VALUE(0.)),(
PARAMETER_VALUE(1.)),.T.,.PARAMETER.);
#157=TRIMMED_CURVE('Line12_0',#180,(PARAMETER_VALUE(0.)),(
PARAMETER_VALUE(1.)),.T.,.PARAMETER.);
#158=TRIMMED_CURVE('Line13_0',#181,(PARAMETER_VALUE(0.)),(
PARAMETER_VALUE(1.)),.T.,.PARAMETER.);
#159=TRIMMED_CURVE('Line14_0',#182,(PARAMETER_VALUE(0.)),(
PARAMETER_VALUE(1.)),.T.,.PARAMETER.);
#160=TRIMMED_CURVE('Line15_0',#183,(PARAMETER_VALUE(0.)),(
PARAMETER_VALUE(1.)),.T.,.PARAMETER.);
#161=TRIMMED_CURVE('Line16_0',#184,(PARAMETER_VALUE(0.)),(
PARAMETER_VALUE(1.)),.T.,.PARAMETER.);
#162=TRIMMED_CURVE('Line17_0',#185,(PARAMETER_VALUE(0.)),(
PARAMETER_VALUE(1.)),.T.,.PARAMETER.);
#163=LINE('Line16_0',#329,#186);
#164=LINE('Line27_0',#330,#187);
#165=LINE('Line17_0',#331,#188);
#166=LINE('Line29_0',#332,#189);
#167=LINE('Line31_0',#333,#190);
#168=LINE('Line35_0',#334,#191);
#169=LINE('Line40_0',#335,#192);
#170=LINE('Line41_0',#336,#193);
#171=LINE('Line20_0',#337,#194);
#172=LINE('Line23_0',#338,#195);
#173=LINE('Line20_0',#339,#196);
#174=LINE('Line22_0',#340,#197);
#175=LINE('Line23_0',#341,#198);
#176=LINE('Line24_0',#342,#199);
#177=LINE('Line1_0',#343,#200);
#178=LINE('Line2_0',#344,#201);
#179=LINE('Line11_0',#345,#202);
#180=LINE('Line12_0',#346,#203);
#181=LINE('Line13_0',#347,#204);
#182=LINE('Line14_0',#348,#205);
#183=LINE('Line15_0',#349,#206);
#184=LINE('Line16_0',#350,#207);
#185=LINE('Line17_0',#351,#208);
#186=VECTOR('',#282,1.0525);
#187=VECTOR('',#283,18.868);
#188=VECTOR('',#284,18.1180166308268);
#189=VECTOR('',#285,37.868);
#190=VECTOR('',#286,3.05);
#191=VECTOR('',#287,2.02420989098972);
#192=VECTOR('',#288,1.22536024370498);
#193=VECTOR('',#289,19.1188928190778);
#194=VECTOR('',#290,1.5);
#195=VECTOR('',#291,1.50350991554983);
#196=VECTOR('',#292,1.35);
#197=VECTOR('',#293,19.1181797985581);
#198=VECTOR('',#294,1.5);
#199=VECTOR('',#295,0.173205080756888);
#200=VECTOR('',#296,1.22501469378943);
#201=VECTOR('',#297,1.22501469378943);
#202=VECTOR('',#298,1.05);
#203=VECTOR('',#299,4.2);
#204=VECTOR('',#300,2.1);
#205=VECTOR('',#301,4.2);
#206=VECTOR('',#302,1.05);
#207=VECTOR('',#303,3.569);
#208=VECTOR('',#304,2.1);
#209=INVISIBILITY((#210,#211,#212,#213));
#210=PRESENTATION_LAYER_ASSIGNMENT('169','Layer 169',(#328,#142,#143,#144,
#145,#146,#147));
#211=PRESENTATION_LAYER_ASSIGNMENT('121','Layer 121',(#140,#141,#154,#155,
#156,#157,#158,#159,#160,#161,#162));
#212=PRESENTATION_LAYER_ASSIGNMENT('166','Layer 166',(#148,#149));
#213=PRESENTATION_LAYER_ASSIGNMENT('162','Layer 162',(#150,#151,#152,#153));
#214=PRESENTATION_LAYER_ASSIGNMENT('1','Layer 1',(#31));
#215=STYLED_ITEM('',(#240),#328);
#216=STYLED_ITEM('',(#241),#140);
#217=STYLED_ITEM('',(#242),#141);
#218=STYLED_ITEM('',(#243),#142);
#219=STYLED_ITEM('',(#244),#143);
#220=STYLED_ITEM('',(#245),#144);
#221=STYLED_ITEM('',(#246),#145);
#222=STYLED_ITEM('',(#247),#146);
#223=STYLED_ITEM('',(#248),#147);
#224=STYLED_ITEM('',(#249),#148);
#225=STYLED_ITEM('',(#250),#149);
#226=STYLED_ITEM('',(#251),#150);
#227=STYLED_ITEM('',(#252),#151);
#228=STYLED_ITEM('',(#253),#152);
#229=STYLED_ITEM('',(#254),#153);
#230=STYLED_ITEM('',(#255),#154);
#231=STYLED_ITEM('',(#256),#155);
#232=STYLED_ITEM('',(#257),#156);
#233=STYLED_ITEM('',(#258),#157);
#234=STYLED_ITEM('',(#259),#158);
#235=STYLED_ITEM('',(#260),#159);
#236=STYLED_ITEM('',(#261),#160);
#237=STYLED_ITEM('',(#262),#161);
#238=STYLED_ITEM('',(#263),#162);
#239=STYLED_ITEM('',(#264),#31);
#240=PRESENTATION_STYLE_ASSIGNMENT((#265));
#241=PRESENTATION_STYLE_ASSIGNMENT((#94));
#242=PRESENTATION_STYLE_ASSIGNMENT((#95));
#243=PRESENTATION_STYLE_ASSIGNMENT((#96));
#244=PRESENTATION_STYLE_ASSIGNMENT((#97));
#245=PRESENTATION_STYLE_ASSIGNMENT((#98));
#246=PRESENTATION_STYLE_ASSIGNMENT((#99));
#247=PRESENTATION_STYLE_ASSIGNMENT((#100));
#248=PRESENTATION_STYLE_ASSIGNMENT((#101));
#249=PRESENTATION_STYLE_ASSIGNMENT((#102));
#250=PRESENTATION_STYLE_ASSIGNMENT((#103));
#251=PRESENTATION_STYLE_ASSIGNMENT((#104));
#252=PRESENTATION_STYLE_ASSIGNMENT((#105));
#253=PRESENTATION_STYLE_ASSIGNMENT((#106));
#254=PRESENTATION_STYLE_ASSIGNMENT((#107));
#255=PRESENTATION_STYLE_ASSIGNMENT((#108));
#256=PRESENTATION_STYLE_ASSIGNMENT((#109));
#257=PRESENTATION_STYLE_ASSIGNMENT((#110));
#258=PRESENTATION_STYLE_ASSIGNMENT((#111));
#259=PRESENTATION_STYLE_ASSIGNMENT((#112));
#260=PRESENTATION_STYLE_ASSIGNMENT((#113));
#261=PRESENTATION_STYLE_ASSIGNMENT((#114));
#262=PRESENTATION_STYLE_ASSIGNMENT((#115));
#263=PRESENTATION_STYLE_ASSIGNMENT((#116));
#264=PRESENTATION_STYLE_ASSIGNMENT((#26));
#265=POINT_STYLE('',#266,POSITIVE_LENGTH_MEASURE(3.),#267);
#266=PRE_DEFINED_POINT_MARKER_SYMBOL('plus');
#267=DRAUGHTING_PRE_DEFINED_COLOUR('white');
#268=AXIS2_PLACEMENT_3D('',#327,#280,#281);
#269=AXIS2_PLACEMENT_3D('',#352,#305,#306);
#270=AXIS2_PLACEMENT_3D('',#354,#307,#308);
#271=AXIS2_PLACEMENT_3D('',#356,#309,#310);
#272=AXIS2_PLACEMENT_3D('',#357,#311,#312);
#273=AXIS2_PLACEMENT_3D('',#359,#313,#314);
#274=AXIS2_PLACEMENT_3D('',#360,#315,#316);
#275=AXIS2_PLACEMENT_3D('',#362,#317,#318);
#276=AXIS2_PLACEMENT_3D('',#363,#319,#320);
#277=AXIS2_PLACEMENT_3D('',#365,#321,#322);
#278=AXIS2_PLACEMENT_3D('',#366,#323,#324);
#279=AXIS2_PLACEMENT_3D('',#368,#325,#326);
#280=DIRECTION('',(0.,0.,1.));
#281=DIRECTION('',(1.,0.,0.));
#282=DIRECTION('',(1.,0.,0.));
#283=DIRECTION('',(-1.41219803853105E-16,0.,-1.));
#284=DIRECTION('',(-0.00135492885421189,0.,-0.999999082083479));
#285=DIRECTION('',(0.,0.,1.));
#286=DIRECTION('',(1.,0.,0.));
#287=DIRECTION('',(-1.,0.,0.));
#288=DIRECTION('',(-0.857167300734918,0.,0.515038074855457));
#289=DIRECTION('',(0.,0.,1.));
#290=DIRECTION('',(1.,0.,0.));
#291=DIRECTION('',(-0.314500726646621,0.,0.949257232228834));
#292=DIRECTION('',(1.,0.,-3.17501022001166E-17));
#293=DIRECTION('',(0.,0.,1.));
#294=DIRECTION('',(-1.,0.,0.));
#295=DIRECTION('',(0.866025403784439,0.,0.5));
#296=DIRECTION('',(0.,-0.857132575897486,-0.515095862277442));
#297=DIRECTION('',(0.,0.857132575897486,-0.515095862277442));
#298=DIRECTION('',(0.,1.,0.));
#299=DIRECTION('',(0.,-3.1720657846433E-16,1.));
#300=DIRECTION('',(0.,-1.,0.));
#301=DIRECTION('',(0.,3.17206578464331E-16,-1.));
#302=DIRECTION('',(0.,1.,0.));
#303=DIRECTION('',(0.,-4.58618698358182E-17,1.));
#304=DIRECTION('',(0.,1.,3.38353683695286E-15));
#305=DIRECTION('',(0.,0.,-1.));
#306=DIRECTION('',(-1.,0.,0.));
#307=DIRECTION('',(0.,0.,-1.));
#308=DIRECTION('',(1.,0.,0.));
#309=DIRECTION('',(0.,0.,1.));
#310=DIRECTION('',(1.,0.,-2.01941074995269E-14));
#311=DIRECTION('',(0.,0.,1.));
#312=DIRECTION('',(1.,0.,0.));
#313=DIRECTION('',(0.,0.,-1.));
#314=DIRECTION('',(-1.,0.,-4.17578542284884E-17));
#315=DIRECTION('',(0.,0.,1.));
#316=DIRECTION('',(1.,0.,0.));
#317=DIRECTION('',(0.,0.,-1.));
#318=DIRECTION('',(-1.,0.,0.));
#319=DIRECTION('',(0.,0.,1.));
#320=DIRECTION('',(1.,0.,0.));
#321=DIRECTION('',(0.,0.,1.));
#322=DIRECTION('',(1.,0.,3.80257052745773E-17));
#323=DIRECTION('',(0.,0.,1.));
#324=DIRECTION('',(1.,0.,0.));
#325=DIRECTION('',(0.,0.,-1.));
#326=DIRECTION('',(-1.,0.,-1.2509834438187E-17));
#327=CARTESIAN_POINT('',(0.,0.,0.));
#328=CARTESIAN_POINT('',(1.02714503910821,0.,20.632));
#329=CARTESIAN_POINT('',(0.,0.,39.5));
#330=CARTESIAN_POINT('',(1.0525,0.,39.5));
#331=CARTESIAN_POINT('',(1.05033873252448,0.,37.75));
#332=CARTESIAN_POINT('',(3.05,0.,19.632));
#333=CARTESIAN_POINT('',(0.,0.,57.5));
#334=CARTESIAN_POINT('',(3.05,0.,19.632));
#335=CARTESIAN_POINT('',(1.05033873252448,0.,37.75));
#336=CARTESIAN_POINT('',(0.,0.,38.3811071809222));
#337=CARTESIAN_POINT('',(0.,0.,19.2047823389366));
#338=CARTESIAN_POINT('',(1.5,0.,19.2047823389366));
#339=CARTESIAN_POINT('',(0.,0.,0.));
#340=CARTESIAN_POINT('',(1.5,0.,0.0866025403784437));
#341=CARTESIAN_POINT('',(1.5,0.,19.2047823389366));
#342=CARTESIAN_POINT('',(1.35,0.,-4.28626379701574E-17));
#343=CARTESIAN_POINT('',(0.,0.,37.5));
#344=CARTESIAN_POINT('',(0.,0.,37.5));
#345=CARTESIAN_POINT('',(0.,1.05,36.869));
#346=CARTESIAN_POINT('',(0.,2.1,36.869));
#347=CARTESIAN_POINT('',(0.,2.1,41.069));
#348=CARTESIAN_POINT('',(0.,-2.1,41.069));
#349=CARTESIAN_POINT('',(0.,-2.1,36.869));
#350=CARTESIAN_POINT('',(0.,0.,37.5));
#351=CARTESIAN_POINT('',(0.,-2.1,41.069));
#352=CARTESIAN_POINT('',(0.,0.,36.8695133727706));
#353=CARTESIAN_POINT('',(-1.04914573469243,0.,36.8695133727706));
#354=CARTESIAN_POINT('',(0.,0.,20.632));
#355=CARTESIAN_POINT('',(1.02714503910821,0.,20.632));
#356=CARTESIAN_POINT('',(0.,0.,37.75));
#357=CARTESIAN_POINT('',(0.,0.,19.2047823389366));
#358=CARTESIAN_POINT('',(1.5,0.,19.2047823389366));
#359=CARTESIAN_POINT('',(0.,0.,20.632));
#360=CARTESIAN_POINT('',(0.,0.,0.));
#361=CARTESIAN_POINT('',(1.35,0.,0.));
#362=CARTESIAN_POINT('',(1.35,0.,-2.08166817117217E-17));
#363=CARTESIAN_POINT('',(0.,0.,0.086602540378445));
#364=CARTESIAN_POINT('',(1.5,0.,0.086602540378445));
#365=CARTESIAN_POINT('',(0.,0.,0.086602540378445));
#366=CARTESIAN_POINT('',(0.,0.,-20.9080749503476));
#367=CARTESIAN_POINT('',(0.,0.,37.5));
#368=CARTESIAN_POINT('',(0.,-1.77635683940025E-15,37.5));
#369=MECHANICAL_DESIGN_GEOMETRIC_PRESENTATION_REPRESENTATION('',(#215,#216,
#217,#218,#219,#220,#221,#222,#223,#224,#225,#226,#227,#228,#229,#230,#231,
#232,#233,#234,#235,#236,#237,#238,#239),#370);
#370=(
GEOMETRIC_REPRESENTATION_CONTEXT(3)
GLOBAL_UNCERTAINTY_ASSIGNED_CONTEXT((#371))
GLOBAL_UNIT_ASSIGNED_CONTEXT((#377,#373,#372))
REPRESENTATION_CONTEXT('tb_20210315_123241_as_1',
'TOP_LEVEL_ASSEMBLY_PART')
);
#371=UNCERTAINTY_MEASURE_WITH_UNIT(LENGTH_MEASURE(2.E-5),#377,
'DISTANCE_ACCURACY_VALUE','Maximum Tolerance applied to model');
#372=(
NAMED_UNIT(*)
SI_UNIT($,.STERADIAN.)
SOLID_ANGLE_UNIT()
);
#373=(
CONVERSION_BASED_UNIT('DEGREE',#375)
NAMED_UNIT(#374)
PLANE_ANGLE_UNIT()
);
#374=DIMENSIONAL_EXPONENTS(0.,0.,0.,0.,0.,0.,0.);
#375=PLANE_ANGLE_MEASURE_WITH_UNIT(PLANE_ANGLE_MEASURE(0.0174532925),#376);
#376=(
NAMED_UNIT(*)
PLANE_ANGLE_UNIT()
SI_UNIT($,.RADIAN.)
);
#377=(
LENGTH_UNIT()
NAMED_UNIT(*)
SI_UNIT(.MILLI.,.METRE.)
);
ENDSEC;
END-ISO-10303-21;
