ISO-10303-21;
HEADER;
/* Generated by software containing ST-Developer
 * from STEP Tools, Inc. (www.steptools.com) 
 */
/* OPTION: using custom schema-name function */

FILE_DESCRIPTION(
/* description */ (''),
/* implementation_level */ '2;1');

FILE_NAME(
/* name */ 'TOOL.STP',
/* time_stamp */ '2023-09-04T11:05:25+02:00',
/* author */ (''),
/* organization */ ('SMS'),
/* preprocessor_version */ 'ST-DEVELOPER v16.7',
/* originating_system */ 'SIEMENS PLM Software NX 12.0',
/* authorisation */ '');

FILE_SCHEMA (('AUTOMOTIVE_DESIGN { 1 0 10303 214 3 1 1 1 }'));
ENDSEC;

DATA;
#10=CONSTRUCTIVE_GEOMETRY_REPRESENTATION_RELATIONSHIP(
'supplemental geometry','',#26,#11);
#11=CONSTRUCTIVE_GEOMETRY_REPRESENTATION('supplemental geometry',(#359,
#360,#361),#619);
#12=GEOMETRICALLY_BOUNDED_WIREFRAME_SHAPE_REPRESENTATION('Tool-None',(#27),
#619);
#13=SHAPE_REPRESENTATION_RELATIONSHIP('None',
'relationship between Tool-None and Tool-None',#26,#15);
#14=SHAPE_REPRESENTATION_RELATIONSHIP('None',
'relationship between Tool-None and Tool-None',#26,#12);
#15=ADVANCED_BREP_SHAPE_REPRESENTATION('Tool-None',(#38,#39),#619);
#16=SHAPE_DEFINITION_REPRESENTATION(#17,#26);
#17=PRODUCT_DEFINITION_SHAPE('','',#18);
#18=PRODUCT_DEFINITION(' ','',#20,#19);
#19=PRODUCT_DEFINITION_CONTEXT('part definition',#25,'design');
#20=PRODUCT_DEFINITION_FORMATION_WITH_SPECIFIED_SOURCE(' ',' ',#22,
 .NOT_KNOWN.);
#21=PRODUCT_RELATED_PRODUCT_CATEGORY('part','',(#22));
#22=PRODUCT('Tool','Tool',' ',(#23));
#23=PRODUCT_CONTEXT(' ',#25,'mechanical');
#24=APPLICATION_PROTOCOL_DEFINITION('international standard',
'automotive_design',2010,#25);
#25=APPLICATION_CONTEXT(
'core data for automotive mechanical design processes');
#26=SHAPE_REPRESENTATION('Tool-None',(#358),#619);
#27=GEOMETRIC_CURVE_SET('None',(#500,#501,#502,#322));
#28=SURFACE_STYLE_USAGE(.BOTH.,#30);
#29=SURFACE_STYLE_USAGE(.BOTH.,#31);
#30=SURFACE_SIDE_STYLE('',(#32));
#31=SURFACE_SIDE_STYLE('',(#33));
#32=SURFACE_STYLE_FILL_AREA(#34);
#33=SURFACE_STYLE_FILL_AREA(#35);
#34=FILL_AREA_STYLE('',(#36));
#35=FILL_AREA_STYLE('',(#37));
#36=FILL_AREA_STYLE_COLOUR('',#356);
#37=FILL_AREA_STYLE_COLOUR('',#357);
#38=MANIFOLD_SOLID_BREP('NOCUT',#40);
#39=MANIFOLD_SOLID_BREP('CUT',#41);
#40=CLOSED_SHELL('',(#99,#100,#101,#102,#103,#104,#105,#106,#107,#108,#109,
#110,#111,#112,#113,#114));
#41=CLOSED_SHELL('',(#115,#116,#117,#118,#119));
#42=PLANE('',#379);
#43=PLANE('',#380);
#44=PLANE('',#381);
#45=PLANE('',#382);
#46=PLANE('',#383);
#47=PLANE('',#384);
#48=PLANE('',#385);
#49=PLANE('',#386);
#50=PLANE('',#387);
#51=PLANE('',#390);
#52=PLANE('',#391);
#53=PLANE('',#393);
#54=PLANE('',#400);
#55=FACE_OUTER_BOUND('',#150,.T.);
#56=FACE_OUTER_BOUND('',#151,.T.);
#57=FACE_OUTER_BOUND('',#152,.T.);
#58=FACE_OUTER_BOUND('',#153,.T.);
#59=FACE_OUTER_BOUND('',#154,.T.);
#60=FACE_OUTER_BOUND('',#155,.T.);
#61=FACE_OUTER_BOUND('',#156,.T.);
#62=FACE_OUTER_BOUND('',#157,.T.);
#63=FACE_OUTER_BOUND('',#158,.T.);
#64=FACE_OUTER_BOUND('',#163,.T.);
#65=FACE_OUTER_BOUND('',#164,.T.);
#66=FACE_OUTER_BOUND('',#171,.T.);
#67=ELLIPSE('',#368,1.69705627484771,1.2);
#68=ELLIPSE('',#370,1.69705627484771,1.2);
#69=ELLIPSE('',#372,1.69705627484771,1.2);
#70=ELLIPSE('',#374,1.69705627484771,1.2);
#71=LINE('',#535,#83);
#72=LINE('',#540,#84);
#73=LINE('',#544,#85);
#74=LINE('',#548,#86);
#75=LINE('',#552,#87);
#76=LINE('',#556,#88);
#77=LINE('',#560,#89);
#78=LINE('',#564,#90);
#79=LINE('',#588,#91);
#80=LINE('',#591,#92);
#81=LINE('',#594,#93);
#82=LINE('',#597,#94);
#83=VECTOR('',#421,1.);
#84=VECTOR('',#424,1.);
#85=VECTOR('',#427,1.);
#86=VECTOR('',#430,1.);
#87=VECTOR('',#433,1.);
#88=VECTOR('',#436,1.);
#89=VECTOR('',#439,1.);
#90=VECTOR('',#442,1.);
#91=VECTOR('',#453,1.);
#92=VECTOR('',#458,1.);
#93=VECTOR('',#463,1.);
#94=VECTOR('',#468,1.);
#95=CONICAL_SURFACE('',#367,2.45,45.);
#96=CONICAL_SURFACE('',#378,0.199999999999999,45.);
#97=CONICAL_SURFACE('',#398,0.914136848933908,45.0000000000001);
#98=CONICAL_SURFACE('',#399,0.220131564720999,11.7189074536289);
#99=ADVANCED_FACE('',(#124,#125),#120,.T.);
#100=ADVANCED_FACE('',(#126,#127),#95,.T.);
#101=ADVANCED_FACE('',(#128,#129),#121,.T.);
#102=ADVANCED_FACE('',(#130,#131),#96,.T.);
#103=ADVANCED_FACE('',(#55),#42,.F.);
#104=ADVANCED_FACE('',(#56),#43,.T.);
#105=ADVANCED_FACE('',(#57),#44,.T.);
#106=ADVANCED_FACE('',(#58),#45,.T.);
#107=ADVANCED_FACE('',(#59),#46,.T.);
#108=ADVANCED_FACE('',(#60),#47,.T.);
#109=ADVANCED_FACE('',(#61),#48,.T.);
#110=ADVANCED_FACE('',(#62),#49,.T.);
#111=ADVANCED_FACE('',(#63),#50,.T.);
#112=ADVANCED_FACE('',(#132,#133),#122,.T.);
#113=ADVANCED_FACE('',(#134,#135),#51,.T.);
#114=ADVANCED_FACE('',(#64),#52,.T.);
#115=ADVANCED_FACE('',(#65),#53,.T.);
#116=ADVANCED_FACE('',(#136,#137),#123,.T.);
#117=ADVANCED_FACE('',(#138,#139),#97,.T.);
#118=ADVANCED_FACE('',(#140,#141),#98,.T.);
#119=ADVANCED_FACE('',(#66),#54,.F.);
#120=CYLINDRICAL_SURFACE('',#364,0.834136848933919);
#121=CYLINDRICAL_SURFACE('',#376,1.2);
#122=CYLINDRICAL_SURFACE('',#389,1.25);
#123=CYLINDRICAL_SURFACE('',#395,0.834136848933919);
#124=FACE_BOUND('',#142,.T.);
#125=FACE_BOUND('',#143,.T.);
#126=FACE_BOUND('',#144,.T.);
#127=FACE_BOUND('',#145,.T.);
#128=FACE_BOUND('',#146,.T.);
#129=FACE_BOUND('',#147,.T.);
#130=FACE_BOUND('',#148,.T.);
#131=FACE_BOUND('',#149,.T.);
#132=FACE_BOUND('',#159,.T.);
#133=FACE_BOUND('',#160,.T.);
#134=FACE_BOUND('',#161,.T.);
#135=FACE_BOUND('',#162,.T.);
#136=FACE_BOUND('',#165,.T.);
#137=FACE_BOUND('',#166,.T.);
#138=FACE_BOUND('',#167,.T.);
#139=FACE_BOUND('',#168,.T.);
#140=FACE_BOUND('',#169,.T.);
#141=FACE_BOUND('',#170,.T.);
#142=EDGE_LOOP('',(#172));
#143=EDGE_LOOP('',(#173));
#144=EDGE_LOOP('',(#174));
#145=EDGE_LOOP('',(#175));
#146=EDGE_LOOP('',(#176));
#147=EDGE_LOOP('',(#177,#178,#179,#180,#181,#182,#183,#184,#185,#186,#187,
#188,#189,#190,#191,#192));
#148=EDGE_LOOP('',(#193));
#149=EDGE_LOOP('',(#194,#195,#196,#197,#198,#199,#200,#201));
#150=EDGE_LOOP('',(#202));
#151=EDGE_LOOP('',(#203,#204,#205,#206));
#152=EDGE_LOOP('',(#207,#208));
#153=EDGE_LOOP('',(#209,#210,#211,#212));
#154=EDGE_LOOP('',(#213,#214));
#155=EDGE_LOOP('',(#215,#216,#217,#218));
#156=EDGE_LOOP('',(#219,#220));
#157=EDGE_LOOP('',(#221,#222));
#158=EDGE_LOOP('',(#223,#224,#225,#226));
#159=EDGE_LOOP('',(#227));
#160=EDGE_LOOP('',(#228));
#161=EDGE_LOOP('',(#229));
#162=EDGE_LOOP('',(#230));
#163=EDGE_LOOP('',(#231));
#164=EDGE_LOOP('',(#232));
#165=EDGE_LOOP('',(#233));
#166=EDGE_LOOP('',(#234));
#167=EDGE_LOOP('',(#235));
#168=EDGE_LOOP('',(#236));
#169=EDGE_LOOP('',(#237));
#170=EDGE_LOOP('',(#238));
#171=EDGE_LOOP('',(#239));
#172=ORIENTED_EDGE('',*,*,#266,.T.);
#173=ORIENTED_EDGE('',*,*,#267,.T.);
#174=ORIENTED_EDGE('',*,*,#268,.T.);
#175=ORIENTED_EDGE('',*,*,#269,.F.);
#176=ORIENTED_EDGE('',*,*,#268,.F.);
#177=ORIENTED_EDGE('',*,*,#270,.F.);
#178=ORIENTED_EDGE('',*,*,#271,.F.);
#179=ORIENTED_EDGE('',*,*,#272,.F.);
#180=ORIENTED_EDGE('',*,*,#273,.F.);
#181=ORIENTED_EDGE('',*,*,#274,.F.);
#182=ORIENTED_EDGE('',*,*,#275,.F.);
#183=ORIENTED_EDGE('',*,*,#276,.F.);
#184=ORIENTED_EDGE('',*,*,#277,.F.);
#185=ORIENTED_EDGE('',*,*,#278,.F.);
#186=ORIENTED_EDGE('',*,*,#279,.F.);
#187=ORIENTED_EDGE('',*,*,#280,.F.);
#188=ORIENTED_EDGE('',*,*,#281,.F.);
#189=ORIENTED_EDGE('',*,*,#282,.F.);
#190=ORIENTED_EDGE('',*,*,#283,.F.);
#191=ORIENTED_EDGE('',*,*,#284,.F.);
#192=ORIENTED_EDGE('',*,*,#285,.F.);
#193=ORIENTED_EDGE('',*,*,#286,.F.);
#194=ORIENTED_EDGE('',*,*,#273,.T.);
#195=ORIENTED_EDGE('',*,*,#287,.T.);
#196=ORIENTED_EDGE('',*,*,#285,.T.);
#197=ORIENTED_EDGE('',*,*,#288,.T.);
#198=ORIENTED_EDGE('',*,*,#281,.T.);
#199=ORIENTED_EDGE('',*,*,#289,.T.);
#200=ORIENTED_EDGE('',*,*,#277,.T.);
#201=ORIENTED_EDGE('',*,*,#290,.T.);
#202=ORIENTED_EDGE('',*,*,#286,.T.);
#203=ORIENTED_EDGE('',*,*,#278,.T.);
#204=ORIENTED_EDGE('',*,*,#289,.F.);
#205=ORIENTED_EDGE('',*,*,#280,.T.);
#206=ORIENTED_EDGE('',*,*,#291,.F.);
#207=ORIENTED_EDGE('',*,*,#279,.T.);
#208=ORIENTED_EDGE('',*,*,#291,.T.);
#209=ORIENTED_EDGE('',*,*,#274,.T.);
#210=ORIENTED_EDGE('',*,*,#290,.F.);
#211=ORIENTED_EDGE('',*,*,#276,.T.);
#212=ORIENTED_EDGE('',*,*,#292,.F.);
#213=ORIENTED_EDGE('',*,*,#275,.T.);
#214=ORIENTED_EDGE('',*,*,#292,.T.);
#215=ORIENTED_EDGE('',*,*,#282,.T.);
#216=ORIENTED_EDGE('',*,*,#288,.F.);
#217=ORIENTED_EDGE('',*,*,#284,.T.);
#218=ORIENTED_EDGE('',*,*,#293,.F.);
#219=ORIENTED_EDGE('',*,*,#283,.T.);
#220=ORIENTED_EDGE('',*,*,#293,.T.);
#221=ORIENTED_EDGE('',*,*,#271,.T.);
#222=ORIENTED_EDGE('',*,*,#294,.T.);
#223=ORIENTED_EDGE('',*,*,#270,.T.);
#224=ORIENTED_EDGE('',*,*,#287,.F.);
#225=ORIENTED_EDGE('',*,*,#272,.T.);
#226=ORIENTED_EDGE('',*,*,#294,.F.);
#227=ORIENTED_EDGE('',*,*,#295,.F.);
#228=ORIENTED_EDGE('',*,*,#269,.T.);
#229=ORIENTED_EDGE('',*,*,#266,.F.);
#230=ORIENTED_EDGE('',*,*,#295,.T.);
#231=ORIENTED_EDGE('',*,*,#267,.F.);
#232=ORIENTED_EDGE('',*,*,#296,.F.);
#233=ORIENTED_EDGE('',*,*,#297,.F.);
#234=ORIENTED_EDGE('',*,*,#296,.T.);
#235=ORIENTED_EDGE('',*,*,#298,.F.);
#236=ORIENTED_EDGE('',*,*,#299,.F.);
#237=ORIENTED_EDGE('',*,*,#297,.T.);
#238=ORIENTED_EDGE('',*,*,#299,.T.);
#239=ORIENTED_EDGE('',*,*,#298,.T.);
#240=VERTEX_POINT('',#526);
#241=VERTEX_POINT('',#528);
#242=VERTEX_POINT('',#531);
#243=VERTEX_POINT('',#533);
#244=VERTEX_POINT('',#536);
#245=VERTEX_POINT('',#537);
#246=VERTEX_POINT('',#539);
#247=VERTEX_POINT('',#541);
#248=VERTEX_POINT('',#543);
#249=VERTEX_POINT('',#545);
#250=VERTEX_POINT('',#547);
#251=VERTEX_POINT('',#549);
#252=VERTEX_POINT('',#551);
#253=VERTEX_POINT('',#553);
#254=VERTEX_POINT('',#555);
#255=VERTEX_POINT('',#557);
#256=VERTEX_POINT('',#559);
#257=VERTEX_POINT('',#561);
#258=VERTEX_POINT('',#563);
#259=VERTEX_POINT('',#565);
#260=VERTEX_POINT('',#569);
#261=VERTEX_POINT('',#601);
#262=VERTEX_POINT('',#606);
#263=VERTEX_POINT('',#609);
#264=VERTEX_POINT('',#612);
#265=VERTEX_POINT('',#614);
#266=EDGE_CURVE('',#240,#240,#300,.T.);
#267=EDGE_CURVE('',#241,#241,#301,.T.);
#268=EDGE_CURVE('',#242,#242,#302,.T.);
#269=EDGE_CURVE('',#243,#243,#303,.T.);
#270=EDGE_CURVE('',#244,#245,#71,.T.);
#271=EDGE_CURVE('',#246,#244,#67,.T.);
#272=EDGE_CURVE('',#247,#246,#72,.T.);
#273=EDGE_CURVE('',#248,#247,#304,.T.);
#274=EDGE_CURVE('',#249,#248,#73,.T.);
#275=EDGE_CURVE('',#250,#249,#68,.T.);
#276=EDGE_CURVE('',#251,#250,#74,.T.);
#277=EDGE_CURVE('',#252,#251,#305,.T.);
#278=EDGE_CURVE('',#253,#252,#75,.T.);
#279=EDGE_CURVE('',#254,#253,#69,.T.);
#280=EDGE_CURVE('',#255,#254,#76,.T.);
#281=EDGE_CURVE('',#256,#255,#306,.T.);
#282=EDGE_CURVE('',#257,#256,#77,.T.);
#283=EDGE_CURVE('',#258,#257,#70,.T.);
#284=EDGE_CURVE('',#259,#258,#78,.T.);
#285=EDGE_CURVE('',#245,#259,#307,.T.);
#286=EDGE_CURVE('',#260,#260,#308,.T.);
#287=EDGE_CURVE('',#247,#245,#323,.T.);
#288=EDGE_CURVE('',#259,#256,#324,.T.);
#289=EDGE_CURVE('',#255,#252,#325,.T.);
#290=EDGE_CURVE('',#251,#248,#326,.T.);
#291=EDGE_CURVE('',#253,#254,#79,.T.);
#292=EDGE_CURVE('',#249,#250,#80,.T.);
#293=EDGE_CURVE('',#257,#258,#81,.T.);
#294=EDGE_CURVE('',#244,#246,#82,.T.);
#295=EDGE_CURVE('',#261,#261,#309,.T.);
#296=EDGE_CURVE('',#262,#262,#310,.T.);
#297=EDGE_CURVE('',#263,#263,#311,.T.);
#298=EDGE_CURVE('',#264,#264,#312,.T.);
#299=EDGE_CURVE('',#265,#265,#313,.T.);
#300=CIRCLE('',#362,0.834136848933919);
#301=CIRCLE('',#363,0.834136848933919);
#302=CIRCLE('',#365,1.2);
#303=CIRCLE('',#366,1.25);
#304=CIRCLE('',#369,1.2);
#305=CIRCLE('',#371,1.2);
#306=CIRCLE('',#373,1.2);
#307=CIRCLE('',#375,1.2);
#308=CIRCLE('',#377,0.199999999999999);
#309=CIRCLE('',#388,1.25);
#310=CIRCLE('',#392,0.834136848933919);
#311=CIRCLE('',#394,0.834136848933919);
#312=CIRCLE('',#396,0.314999999999982);
#313=CIRCLE('',#397,0.6925794828598);
#314=CURVE_STYLE('',#318,POSITIVE_LENGTH_MEASURE(0.18),#328);
#315=CURVE_STYLE('',#319,POSITIVE_LENGTH_MEASURE(0.13),#355);
#316=CURVE_STYLE('',#320,POSITIVE_LENGTH_MEASURE(0.18),#354);
#317=CURVE_STYLE('',#321,POSITIVE_LENGTH_MEASURE(0.18),#354);
#318=DRAUGHTING_PRE_DEFINED_CURVE_FONT('continuous');
#319=DRAUGHTING_PRE_DEFINED_CURVE_FONT('continuous');
#320=DRAUGHTING_PRE_DEFINED_CURVE_FONT('continuous');
#321=DRAUGHTING_PRE_DEFINED_CURVE_FONT('continuous');
#322=B_SPLINE_CURVE_WITH_KNOTS('CUTTING PART LINE',3,(#503,#504,#505,#506,
#507,#508,#509,#510,#511,#512,#513,#514,#515,#516,#517,#518,#519,#520,#521),
 .UNSPECIFIED.,.T.,.F.,(4,3,3,3,3,3,4),(0.,0.0616962264434344,0.512877566533192,
0.536176275071414,0.575671508042492,0.627220663277498,1.),.UNSPECIFIED.);
#323=B_SPLINE_CURVE_WITH_KNOTS('',3,(#570,#571,#572,#573),.UNSPECIFIED.,
 .F.,.F.,(4,4),(0.,1.),.UNSPECIFIED.);
#324=B_SPLINE_CURVE_WITH_KNOTS('',3,(#574,#575,#576,#577),.UNSPECIFIED.,
 .F.,.F.,(4,4),(0.,1.),.UNSPECIFIED.);
#325=B_SPLINE_CURVE_WITH_KNOTS('',3,(#578,#579,#580,#581),.UNSPECIFIED.,
 .F.,.F.,(4,4),(0.,1.),.UNSPECIFIED.);
#326=B_SPLINE_CURVE_WITH_KNOTS('',3,(#582,#583,#584,#585),.UNSPECIFIED.,
 .F.,.F.,(4,4),(0.,1.),.UNSPECIFIED.);
#327=DRAUGHTING_PRE_DEFINED_COLOUR('white');
#328=DRAUGHTING_PRE_DEFINED_COLOUR('blue');
#329=PRESENTATION_LAYER_ASSIGNMENT('1','Layer 1',(#500,#501,#502,#322,#359,
#360,#361,#38,#39));
#330=STYLED_ITEM('',(#339),#500);
#331=STYLED_ITEM('',(#340),#501);
#332=STYLED_ITEM('',(#341),#502);
#333=STYLED_ITEM('',(#342),#322);
#334=STYLED_ITEM('',(#343),#359);
#335=STYLED_ITEM('',(#344),#360);
#336=STYLED_ITEM('',(#345),#361);
#337=STYLED_ITEM('',(#346),#38);
#338=STYLED_ITEM('',(#347),#39);
#339=PRESENTATION_STYLE_ASSIGNMENT((#348));
#340=PRESENTATION_STYLE_ASSIGNMENT((#349));
#341=PRESENTATION_STYLE_ASSIGNMENT((#350));
#342=PRESENTATION_STYLE_ASSIGNMENT((#314));
#343=PRESENTATION_STYLE_ASSIGNMENT((#315));
#344=PRESENTATION_STYLE_ASSIGNMENT((#316));
#345=PRESENTATION_STYLE_ASSIGNMENT((#317));
#346=PRESENTATION_STYLE_ASSIGNMENT((#28));
#347=PRESENTATION_STYLE_ASSIGNMENT((#29));
#348=POINT_STYLE('',#351,POSITIVE_LENGTH_MEASURE(3.),#354);
#349=POINT_STYLE('',#352,POSITIVE_LENGTH_MEASURE(3.),#327);
#350=POINT_STYLE('',#353,POSITIVE_LENGTH_MEASURE(3.),#354);
#351=PRE_DEFINED_POINT_MARKER_SYMBOL('plus');
#352=PRE_DEFINED_POINT_MARKER_SYMBOL('plus');
#353=PRE_DEFINED_POINT_MARKER_SYMBOL('plus');
#354=COLOUR_RGB('Medium Maroon',0.6,0.4,0.4);
#355=COLOUR_RGB('Silver Gray',0.6,0.6,0.6);
#356=COLOUR_RGB('TLS_NOCUT',0.498023956664378,0.498023956664378,0.498023956664378);
#357=COLOUR_RGB('TLS_CUT',0.8,0.8,0.8);
#358=AXIS2_PLACEMENT_3D('',#499,#401,#402);
#359=AXIS2_PLACEMENT_3D('PCS',#522,#403,#404);
#360=AXIS2_PLACEMENT_3D('MCS',#523,#405,#406);
#361=AXIS2_PLACEMENT_3D('CIP',#524,#407,#408);
#362=AXIS2_PLACEMENT_3D('',#525,#409,#410);
#363=AXIS2_PLACEMENT_3D('',#527,#411,#412);
#364=AXIS2_PLACEMENT_3D('',#529,#413,#414);
#365=AXIS2_PLACEMENT_3D('',#530,#415,#416);
#366=AXIS2_PLACEMENT_3D('',#532,#417,#418);
#367=AXIS2_PLACEMENT_3D('',#534,#419,#420);
#368=AXIS2_PLACEMENT_3D('',#538,#422,#423);
#369=AXIS2_PLACEMENT_3D('',#542,#425,#426);
#370=AXIS2_PLACEMENT_3D('',#546,#428,#429);
#371=AXIS2_PLACEMENT_3D('',#550,#431,#432);
#372=AXIS2_PLACEMENT_3D('',#554,#434,#435);
#373=AXIS2_PLACEMENT_3D('',#558,#437,#438);
#374=AXIS2_PLACEMENT_3D('',#562,#440,#441);
#375=AXIS2_PLACEMENT_3D('',#566,#443,#444);
#376=AXIS2_PLACEMENT_3D('',#567,#445,#446);
#377=AXIS2_PLACEMENT_3D('',#568,#447,#448);
#378=AXIS2_PLACEMENT_3D('',#586,#449,#450);
#379=AXIS2_PLACEMENT_3D('',#587,#451,#452);
#380=AXIS2_PLACEMENT_3D('',#589,#454,#455);
#381=AXIS2_PLACEMENT_3D('',#590,#456,#457);
#382=AXIS2_PLACEMENT_3D('',#592,#459,#460);
#383=AXIS2_PLACEMENT_3D('',#593,#461,#462);
#384=AXIS2_PLACEMENT_3D('',#595,#464,#465);
#385=AXIS2_PLACEMENT_3D('',#596,#466,#467);
#386=AXIS2_PLACEMENT_3D('',#598,#469,#470);
#387=AXIS2_PLACEMENT_3D('',#599,#471,#472);
#388=AXIS2_PLACEMENT_3D('',#600,#473,#474);
#389=AXIS2_PLACEMENT_3D('',#602,#475,#476);
#390=AXIS2_PLACEMENT_3D('',#603,#477,#478);
#391=AXIS2_PLACEMENT_3D('',#604,#479,#480);
#392=AXIS2_PLACEMENT_3D('',#605,#481,#482);
#393=AXIS2_PLACEMENT_3D('',#607,#483,#484);
#394=AXIS2_PLACEMENT_3D('',#608,#485,#486);
#395=AXIS2_PLACEMENT_3D('',#610,#487,#488);
#396=AXIS2_PLACEMENT_3D('',#611,#489,#490);
#397=AXIS2_PLACEMENT_3D('',#613,#491,#492);
#398=AXIS2_PLACEMENT_3D('',#615,#493,#494);
#399=AXIS2_PLACEMENT_3D('',#616,#495,#496);
#400=AXIS2_PLACEMENT_3D('',#617,#497,#498);
#401=DIRECTION('',(0.,0.,1.));
#402=DIRECTION('',(1.,0.,0.));
#403=DIRECTION('',(0.,0.,1.));
#404=DIRECTION('',(1.,0.,0.));
#405=DIRECTION('',(0.,0.,1.));
#406=DIRECTION('',(1.,0.,0.));
#407=DIRECTION('',(0.,0.,1.));
#408=DIRECTION('',(1.,0.,0.));
#409=DIRECTION('',(0.,0.,-1.));
#410=DIRECTION('',(1.,0.,0.));
#411=DIRECTION('',(0.,0.,1.));
#412=DIRECTION('',(-1.,0.,0.));
#413=DIRECTION('',(0.,0.,1.));
#414=DIRECTION('',(1.,0.,0.));
#415=DIRECTION('',(0.,0.,-1.));
#416=DIRECTION('',(1.,0.,0.));
#417=DIRECTION('',(0.,0.,-1.));
#418=DIRECTION('',(-1.,0.,0.));
#419=DIRECTION('',(0.,0.,-1.));
#420=DIRECTION('',(-1.,0.,-3.46096758137923E-17));
#421=DIRECTION('',(0.,0.,1.));
#422=DIRECTION('',(0.707106781186547,0.,0.707106781186548));
#423=DIRECTION('',(-0.707106781186548,0.,0.707106781186547));
#424=DIRECTION('',(0.,0.,-1.));
#425=DIRECTION('',(0.,0.,1.));
#426=DIRECTION('',(-1.,0.,0.));
#427=DIRECTION('',(0.,0.,1.));
#428=DIRECTION('',(-2.64204134232936E-15,-0.707106781186547,0.707106781186548));
#429=DIRECTION('',(2.64204134232937E-15,0.707106781186548,0.707106781186547));
#430=DIRECTION('',(0.,0.,-1.));
#431=DIRECTION('',(0.,0.,1.));
#432=DIRECTION('',(-1.,0.,0.));
#433=DIRECTION('',(0.,0.,1.));
#434=DIRECTION('',(-0.707106781186547,1.65668806430732E-15,0.707106781186548));
#435=DIRECTION('',(0.707106781186548,-1.65668806430733E-15,0.707106781186547));
#436=DIRECTION('',(0.,0.,-1.));
#437=DIRECTION('',(0.,0.,1.));
#438=DIRECTION('',(-1.,0.,0.));
#439=DIRECTION('',(0.,0.,1.));
#440=DIRECTION('',(8.28344032153661E-16,0.707106781186547,0.707106781186548));
#441=DIRECTION('',(-8.28344032153663E-16,-0.707106781186548,0.707106781186547));
#442=DIRECTION('',(0.,0.,-1.));
#443=DIRECTION('',(0.,0.,1.));
#444=DIRECTION('',(-1.,0.,0.));
#445=DIRECTION('',(0.,0.,1.));
#446=DIRECTION('',(1.,0.,0.));
#447=DIRECTION('',(0.,0.,1.));
#448=DIRECTION('',(1.,0.,0.));
#449=DIRECTION('',(0.,0.,-1.));
#450=DIRECTION('',(-1.,0.,0.));
#451=DIRECTION('',(3.01280370079879E-16,0.,-1.));
#452=DIRECTION('',(-1.,0.,-3.01280370079879E-16));
#453=DIRECTION('',(2.34291072916505E-15,1.,0.));
#454=DIRECTION('',(-1.,2.34291072916505E-15,0.));
#455=DIRECTION('',(0.,0.,-1.));
#456=DIRECTION('',(-0.707106781186547,1.65668806430732E-15,0.707106781186548));
#457=DIRECTION('',(-0.707106781186548,1.65666091955785E-15,-0.707106781186547));
#458=DIRECTION('',(-1.,3.7364106986726E-15,0.));
#459=DIRECTION('',(-3.7364106986726E-15,-1.,0.));
#460=DIRECTION('',(0.,0.,-1.));
#461=DIRECTION('',(-2.64204134232936E-15,-0.707106781186547,0.707106781186548));
#462=DIRECTION('',(-2.64198385391268E-15,-0.707106781186548,-0.707106781186547));
#463=DIRECTION('',(1.,-1.17145536458252E-15,0.));
#464=DIRECTION('',(1.17145536458252E-15,1.,0.));
#465=DIRECTION('',(0.,0.,-1.));
#466=DIRECTION('',(8.28344032153661E-16,0.707106781186547,0.707106781186548));
#467=DIRECTION('',(8.28330459778925E-16,0.707106781186548,-0.707106781186547));
#468=DIRECTION('',(0.,-1.,0.));
#469=DIRECTION('',(0.707106781186547,0.,0.707106781186548));
#470=DIRECTION('',(0.707106781186548,0.,-0.707106781186547));
#471=DIRECTION('',(1.,0.,0.));
#472=DIRECTION('',(0.,0.,-1.));
#473=DIRECTION('',(0.,0.,-1.));
#474=DIRECTION('',(-1.,0.,0.));
#475=DIRECTION('',(0.,0.,1.));
#476=DIRECTION('',(1.,0.,0.));
#477=DIRECTION('',(0.,0.,-1.));
#478=DIRECTION('',(-1.,0.,0.));
#479=DIRECTION('',(0.,0.,-1.));
#480=DIRECTION('',(-1.,0.,0.));
#481=DIRECTION('',(0.,0.,-1.));
#482=DIRECTION('',(1.,0.,0.));
#483=DIRECTION('',(0.,0.,1.));
#484=DIRECTION('',(1.,0.,0.));
#485=DIRECTION('',(0.,0.,-1.));
#486=DIRECTION('',(1.,0.,0.));
#487=DIRECTION('',(0.,0.,1.));
#488=DIRECTION('',(1.,0.,0.));
#489=DIRECTION('',(1.022307515394E-16,0.,-1.));
#490=DIRECTION('',(1.,0.,0.));
#491=DIRECTION('',(0.,0.,1.));
#492=DIRECTION('',(-1.,0.,0.));
#493=DIRECTION('',(-6.67977299302574E-16,0.,1.));
#494=DIRECTION('',(1.,0.,7.00188216444787E-16));
#495=DIRECTION('',(0.,0.,1.));
#496=DIRECTION('',(1.,0.,-2.00493577827731E-16));
#497=DIRECTION('',(-1.022307515394E-16,0.,1.));
#498=DIRECTION('',(1.,0.,1.04083408558608E-16));
#499=CARTESIAN_POINT('',(0.,0.,0.));
#500=CARTESIAN_POINT('',(0.,0.,-20.));
#501=CARTESIAN_POINT('CRP',(-0.834136848933919,0.,-40.));
#502=CARTESIAN_POINT('CIP_DCSYS',(0.,0.,-40.));
#503=CARTESIAN_POINT('',(-0.834136848933919,0.,-34.));
#504=CARTESIAN_POINT('',(-0.556091232622613,0.,-34.));
#505=CARTESIAN_POINT('',(-0.278045616311306,0.,-34.));
#506=CARTESIAN_POINT('',(0.,0.,-34.));
#507=CARTESIAN_POINT('',(0.,0.,-36.0333333333333));
#508=CARTESIAN_POINT('',(0.,0.,-38.0666666666667));
#509=CARTESIAN_POINT('',(0.,0.,-40.1));
#510=CARTESIAN_POINT('',(-0.104999999999991,0.,-40.1));
#511=CARTESIAN_POINT('',(-0.209999999999981,0.,-40.1));
#512=CARTESIAN_POINT('',(-0.314999999999972,0.,-40.1));
#513=CARTESIAN_POINT('',(-0.440859827619911,0.,-39.9741401723801));
#514=CARTESIAN_POINT('',(-0.56671965523985,0.,-39.8482803447601));
#515=CARTESIAN_POINT('',(-0.692579482859795,0.,-39.7224205171402));
#516=CARTESIAN_POINT('',(-0.739765271551173,0.,-39.4949470114268));
#517=CARTESIAN_POINT('',(-0.786951060242545,0.,-39.2674735057134));
#518=CARTESIAN_POINT('',(-0.834136848933918,0.,-39.04));
#519=CARTESIAN_POINT('',(-0.834136848933919,0.,-37.36));
#520=CARTESIAN_POINT('',(-0.834136848933919,0.,-35.68));
#521=CARTESIAN_POINT('',(-0.834136848933919,0.,-34.));
#522=CARTESIAN_POINT('',(0.,0.,0.));
#523=CARTESIAN_POINT('',(0.,0.,-20.));
#524=CARTESIAN_POINT('',(0.,0.,-40.));
#525=CARTESIAN_POINT('',(0.,0.,-32.5));
#526=CARTESIAN_POINT('',(0.834136848933919,0.,-32.5));
#527=CARTESIAN_POINT('',(0.,0.,-34.));
#528=CARTESIAN_POINT('',(-0.834136848933919,0.,-34.));
#529=CARTESIAN_POINT('',(0.,0.,20.9080749503476));
#530=CARTESIAN_POINT('',(0.,0.,-5.5));
#531=CARTESIAN_POINT('',(1.2,0.,-5.5));
#532=CARTESIAN_POINT('',(0.,0.,-5.55));
#533=CARTESIAN_POINT('',(-1.25,0.,-5.55));
#534=CARTESIAN_POINT('',(0.,0.,-6.75));
#535=CARTESIAN_POINT('',(1.05,0.580947501931112,20.9080749503476));
#536=CARTESIAN_POINT('',(1.05,0.580947501931113,-5.));
#537=CARTESIAN_POINT('',(1.05,0.580947501931112,-1.));
#538=CARTESIAN_POINT('',(0.,0.,-3.95));
#539=CARTESIAN_POINT('',(1.05,-0.580947501931113,-5.));
#540=CARTESIAN_POINT('',(1.05,-0.580947501931112,20.9080749503476));
#541=CARTESIAN_POINT('',(1.05,-0.580947501931113,-1.));
#542=CARTESIAN_POINT('',(0.,0.,-1.));
#543=CARTESIAN_POINT('',(0.580947501931108,-1.05,-1.));
#544=CARTESIAN_POINT('',(0.580947501931108,-1.05,20.9080749503476));
#545=CARTESIAN_POINT('',(0.580947501931109,-1.05,-5.));
#546=CARTESIAN_POINT('',(0.,0.,-3.95));
#547=CARTESIAN_POINT('',(-0.580947501931117,-1.05,-5.));
#548=CARTESIAN_POINT('',(-0.580947501931116,-1.05,20.9080749503476));
#549=CARTESIAN_POINT('',(-0.580947501931116,-1.05,-1.));
#550=CARTESIAN_POINT('',(0.,0.,-1.));
#551=CARTESIAN_POINT('',(-1.05,-0.580947501931109,-1.));
#552=CARTESIAN_POINT('',(-1.05,-0.580947501931109,20.9080749503476));
#553=CARTESIAN_POINT('',(-1.05,-0.58094750193111,-5.));
#554=CARTESIAN_POINT('',(0.,0.,-3.95));
#555=CARTESIAN_POINT('',(-1.05,0.580947501931115,-5.));
#556=CARTESIAN_POINT('',(-1.05,0.580947501931114,20.9080749503476));
#557=CARTESIAN_POINT('',(-1.05,0.580947501931114,-1.));
#558=CARTESIAN_POINT('',(0.,0.,-1.));
#559=CARTESIAN_POINT('',(-0.580947501931111,1.05,-1.));
#560=CARTESIAN_POINT('',(-0.580947501931111,1.05,20.9080749503476));
#561=CARTESIAN_POINT('',(-0.580947501931111,1.05,-5.));
#562=CARTESIAN_POINT('',(0.,0.,-3.95));
#563=CARTESIAN_POINT('',(0.580947501931114,1.05,-5.));
#564=CARTESIAN_POINT('',(0.580947501931113,1.05,20.9080749503476));
#565=CARTESIAN_POINT('',(0.580947501931114,1.05,-1.));
#566=CARTESIAN_POINT('',(0.,0.,-1.));
#567=CARTESIAN_POINT('',(0.,0.,20.9080749503476));
#568=CARTESIAN_POINT('',(0.,0.,0.));
#569=CARTESIAN_POINT('',(0.199999999999999,0.,0.));
#570=CARTESIAN_POINT('',(1.05,-0.580947501931116,-0.999999999999993));
#571=CARTESIAN_POINT('',(1.05,-0.217349231748628,-0.823973744359167));
#572=CARTESIAN_POINT('',(1.05,0.218245804779143,-0.82440779590994));
#573=CARTESIAN_POINT('',(1.05,0.580947501931546,-0.999999999999093));
#574=CARTESIAN_POINT('',(0.580947501931117,1.05,-0.999999999999993));
#575=CARTESIAN_POINT('',(0.21734923174863,1.05,-0.823973744359167));
#576=CARTESIAN_POINT('',(-0.218245804779142,1.05,-0.82440779590994));
#577=CARTESIAN_POINT('',(-0.580947501931545,1.05,-0.999999999999093));
#578=CARTESIAN_POINT('',(-1.05,0.580947501931548,-0.999999999999093));
#579=CARTESIAN_POINT('',(-1.05,0.218245804779146,-0.82440779590994));
#580=CARTESIAN_POINT('',(-1.05,-0.217349231748625,-0.823973744359167));
#581=CARTESIAN_POINT('',(-1.05,-0.580947501931112,-0.999999999999992));
#582=CARTESIAN_POINT('',(-0.58094750193155,-1.05,-0.999999999999093));
#583=CARTESIAN_POINT('',(-0.218245804779148,-1.05,-0.82440779590994));
#584=CARTESIAN_POINT('',(0.217349231748624,-1.05,-0.823973744359167));
#585=CARTESIAN_POINT('',(0.58094750193111,-1.05,-0.999999999999992));
#586=CARTESIAN_POINT('',(0.,0.,0.));
#587=CARTESIAN_POINT('',(1.45000000000001,0.,2.18428268307913E-16));
#588=CARTESIAN_POINT('',(-1.04999999999999,3.15,-5.));
#589=CARTESIAN_POINT('',(-1.04999999999999,3.15,10.));
#590=CARTESIAN_POINT('',(-1.04999999999999,3.15,-5.));
#591=CARTESIAN_POINT('',(-3.15,-1.04999999999999,-5.));
#592=CARTESIAN_POINT('',(-3.15,-1.04999999999999,10.));
#593=CARTESIAN_POINT('',(-3.15,-1.04999999999999,-5.));
#594=CARTESIAN_POINT('',(3.15,1.05,-5.));
#595=CARTESIAN_POINT('',(3.15,1.05,10.));
#596=CARTESIAN_POINT('',(3.15,1.05,-5.));
#597=CARTESIAN_POINT('',(1.05,-3.15,-5.));
#598=CARTESIAN_POINT('',(1.05,-3.15,-5.));
#599=CARTESIAN_POINT('',(1.05,-3.15,10.));
#600=CARTESIAN_POINT('',(0.,0.,-32.5));
#601=CARTESIAN_POINT('',(-1.25,0.,-32.5));
#602=CARTESIAN_POINT('',(0.,0.,20.9080749503476));
#603=CARTESIAN_POINT('',(2.83413684893392,0.,-32.5));
#604=CARTESIAN_POINT('',(0.,0.,-34.));
#605=CARTESIAN_POINT('',(0.,0.,-34.));
#606=CARTESIAN_POINT('',(0.834136848933919,0.,-34.));
#607=CARTESIAN_POINT('',(0.,0.,-34.));
#608=CARTESIAN_POINT('',(0.,0.,-39.04));
#609=CARTESIAN_POINT('',(0.834136848933919,0.,-39.04));
#610=CARTESIAN_POINT('',(0.,0.,20.9080749503476));
#611=CARTESIAN_POINT('',(1.10027310152163E-14,0.,-40.1));
#612=CARTESIAN_POINT('',(0.314999999999993,0.,-40.1));
#613=CARTESIAN_POINT('',(1.12502255372823E-14,0.,-39.7224205171402));
#614=CARTESIAN_POINT('',(-0.692579482859789,0.,-39.7224205171402));
#615=CARTESIAN_POINT('',(1.11022302462516E-14,0.,-39.5008631510661));
#616=CARTESIAN_POINT('',(0.,0.,-42.));
#617=CARTESIAN_POINT('',(10.5,0.,-40.1));
#618=MECHANICAL_DESIGN_GEOMETRIC_PRESENTATION_REPRESENTATION('',(#330,#331,
#332,#333,#334,#335,#336,#337,#338),#619);
#619=(
GEOMETRIC_REPRESENTATION_CONTEXT(3)
GLOBAL_UNCERTAINTY_ASSIGNED_CONTEXT((#620))
GLOBAL_UNIT_ASSIGNED_CONTEXT((#626,#622,#621))
REPRESENTATION_CONTEXT('TOOL','TOP_LEVEL_ASSEMBLY_PART')
);
#620=UNCERTAINTY_MEASURE_WITH_UNIT(LENGTH_MEASURE(0.0508),#626,
'DISTANCE_ACCURACY_VALUE','Maximum Tolerance applied to model');
#621=(
NAMED_UNIT(*)
SI_UNIT($,.STERADIAN.)
SOLID_ANGLE_UNIT()
);
#622=(
CONVERSION_BASED_UNIT('DEGREE',#624)
NAMED_UNIT(#623)
PLANE_ANGLE_UNIT()
);
#623=DIMENSIONAL_EXPONENTS(0.,0.,0.,0.,0.,0.,0.);
#624=PLANE_ANGLE_MEASURE_WITH_UNIT(PLANE_ANGLE_MEASURE(0.0174532925),#625);
#625=(
NAMED_UNIT(*)
PLANE_ANGLE_UNIT()
SI_UNIT($,.RADIAN.)
);
#626=(
LENGTH_UNIT()
NAMED_UNIT(*)
SI_UNIT(.MILLI.,.METRE.)
);
ENDSEC;
END-ISO-10303-21;
