ISO-10303-21;
HEADER;
/* Generated by software containing ST-Developer
 * from STEP Tools, Inc. (www.steptools.com) 
 */
/* OPTION: using custom schema-name function */

FILE_DESCRIPTION(
/* description */ (''),
/* implementation_level */ '2;1');

FILE_NAME(
/* name */ 'TOOL.STP',
/* time_stamp */ '2023-09-04T12:00:04+02:00',
/* author */ (''),
/* organization */ ('SMS'),
/* preprocessor_version */ 'ST-DEVELOPER v16.7',
/* originating_system */ 'SIEMENS PLM Software NX 12.0',
/* authorisation */ '');

FILE_SCHEMA (('AUTOMOTIVE_DESIGN { 1 0 10303 214 3 1 1 1 }'));
ENDSEC;

DATA;
#10=CONSTRUCTIVE_GEOMETRY_REPRESENTATION_RELATIONSHIP(
'supplemental geometry','',#26,#11);
#11=CONSTRUCTIVE_GEOMETRY_REPRESENTATION('supplemental geometry',(#370,
#371,#372),#650);
#12=GEOMETRICALLY_BOUNDED_WIREFRAME_SHAPE_REPRESENTATION('Tool-None',(#27),
#650);
#13=SHAPE_REPRESENTATION_RELATIONSHIP('None',
'relationship between Tool-None and Tool-None',#26,#15);
#14=SHAPE_REPRESENTATION_RELATIONSHIP('None',
'relationship between Tool-None and Tool-None',#26,#12);
#15=ADVANCED_BREP_SHAPE_REPRESENTATION('Tool-None',(#38,#39),#650);
#16=SHAPE_DEFINITION_REPRESENTATION(#17,#26);
#17=PRODUCT_DEFINITION_SHAPE('','',#18);
#18=PRODUCT_DEFINITION(' ','',#20,#19);
#19=PRODUCT_DEFINITION_CONTEXT('part definition',#25,'design');
#20=PRODUCT_DEFINITION_FORMATION_WITH_SPECIFIED_SOURCE(' ',' ',#22,
 .NOT_KNOWN.);
#21=PRODUCT_RELATED_PRODUCT_CATEGORY('part','',(#22));
#22=PRODUCT('Tool','Tool',' ',(#23));
#23=PRODUCT_CONTEXT(' ',#25,'mechanical');
#24=APPLICATION_PROTOCOL_DEFINITION('international standard',
'automotive_design',2010,#25);
#25=APPLICATION_CONTEXT(
'core data for automotive mechanical design processes');
#26=SHAPE_REPRESENTATION('Tool-None',(#369),#650);
#27=GEOMETRIC_CURVE_SET('None',(#517,#518,#519,#333));
#28=SURFACE_STYLE_USAGE(.BOTH.,#30);
#29=SURFACE_STYLE_USAGE(.BOTH.,#31);
#30=SURFACE_SIDE_STYLE('',(#32));
#31=SURFACE_SIDE_STYLE('',(#33));
#32=SURFACE_STYLE_FILL_AREA(#34);
#33=SURFACE_STYLE_FILL_AREA(#35);
#34=FILL_AREA_STYLE('',(#36));
#35=FILL_AREA_STYLE('',(#37));
#36=FILL_AREA_STYLE_COLOUR('',#367);
#37=FILL_AREA_STYLE_COLOUR('',#368);
#38=MANIFOLD_SOLID_BREP('NOCUT',#40);
#39=MANIFOLD_SOLID_BREP('CUT',#41);
#40=CLOSED_SHELL('',(#101,#102,#103,#104,#105,#106,#107,#108,#109,#110,
#111,#112,#113,#114,#115,#116));
#41=CLOSED_SHELL('',(#117,#118,#119,#120,#121,#122));
#42=LINE('',#562,#54);
#43=LINE('',#564,#55);
#44=LINE('',#573,#56);
#45=LINE('',#578,#57);
#46=LINE('',#580,#58);
#47=LINE('',#589,#59);
#48=LINE('',#594,#60);
#49=LINE('',#596,#61);
#50=LINE('',#605,#62);
#51=LINE('',#623,#63);
#52=LINE('',#625,#64);
#53=LINE('',#626,#65);
#54=VECTOR('',#442,1.);
#55=VECTOR('',#445,1.);
#56=VECTOR('',#446,1.);
#57=VECTOR('',#451,1.);
#58=VECTOR('',#454,1.);
#59=VECTOR('',#455,1.);
#60=VECTOR('',#460,1.);
#61=VECTOR('',#463,1.);
#62=VECTOR('',#464,1.);
#63=VECTOR('',#479,1.);
#64=VECTOR('',#482,1.);
#65=VECTOR('',#483,1.);
#66=ELLIPSE('',#382,2.3758787847868,1.68);
#67=ELLIPSE('',#385,2.3758787847868,1.68);
#68=ELLIPSE('',#388,2.3758787847868,1.68);
#69=ELLIPSE('',#396,2.3758787847868,1.68);
#70=PLANE('',#381);
#71=PLANE('',#383);
#72=PLANE('',#384);
#73=PLANE('',#386);
#74=PLANE('',#387);
#75=PLANE('',#389);
#76=PLANE('',#390);
#77=PLANE('',#397);
#78=PLANE('',#398);
#79=PLANE('',#402);
#80=PLANE('',#404);
#81=PLANE('',#413);
#82=FACE_OUTER_BOUND('',#152,.T.);
#83=FACE_OUTER_BOUND('',#153,.T.);
#84=FACE_OUTER_BOUND('',#154,.T.);
#85=FACE_OUTER_BOUND('',#155,.T.);
#86=FACE_OUTER_BOUND('',#156,.T.);
#87=FACE_OUTER_BOUND('',#157,.T.);
#88=FACE_OUTER_BOUND('',#158,.T.);
#89=FACE_OUTER_BOUND('',#161,.T.);
#90=FACE_OUTER_BOUND('',#162,.T.);
#91=FACE_OUTER_BOUND('',#167,.T.);
#92=FACE_OUTER_BOUND('',#168,.T.);
#93=FACE_OUTER_BOUND('',#177,.T.);
#94=TOROIDAL_SURFACE('',#379,2.54999999999999,0.8);
#95=CONICAL_SURFACE('',#378,1.74999999999999,30.0000000000001);
#96=CONICAL_SURFACE('',#395,0.679999999999999,45.);
#97=CONICAL_SURFACE('',#401,2.95,45.0000000000001);
#98=CONICAL_SURFACE('',#406,2.07881427257041,8.00000000000005);
#99=CONICAL_SURFACE('',#409,2.65436948400956,45.);
#100=CONICAL_SURFACE('',#411,1.54375501453675,13.529452233736);
#101=ADVANCED_FACE('',(#126,#127),#123,.T.);
#102=ADVANCED_FACE('',(#128,#129),#95,.T.);
#103=ADVANCED_FACE('',(#130,#131),#94,.F.);
#104=ADVANCED_FACE('',(#82),#70,.F.);
#105=ADVANCED_FACE('',(#83),#71,.T.);
#106=ADVANCED_FACE('',(#84),#72,.T.);
#107=ADVANCED_FACE('',(#85),#73,.T.);
#108=ADVANCED_FACE('',(#86),#74,.T.);
#109=ADVANCED_FACE('',(#87),#75,.T.);
#110=ADVANCED_FACE('',(#88),#76,.T.);
#111=ADVANCED_FACE('',(#132,#133),#96,.T.);
#112=ADVANCED_FACE('',(#89),#77,.T.);
#113=ADVANCED_FACE('',(#90),#78,.T.);
#114=ADVANCED_FACE('',(#134,#135),#124,.T.);
#115=ADVANCED_FACE('',(#136,#137),#97,.T.);
#116=ADVANCED_FACE('',(#91),#79,.T.);
#117=ADVANCED_FACE('',(#92),#80,.T.);
#118=ADVANCED_FACE('',(#138,#139),#98,.T.);
#119=ADVANCED_FACE('',(#140,#141),#99,.T.);
#120=ADVANCED_FACE('',(#142,#143),#100,.T.);
#121=ADVANCED_FACE('',(#144,#145),#125,.T.);
#122=ADVANCED_FACE('',(#93),#81,.F.);
#123=CYLINDRICAL_SURFACE('',#375,1.74999999999999);
#124=CYLINDRICAL_SURFACE('',#400,1.68);
#125=CYLINDRICAL_SURFACE('',#412,2.55436948400958);
#126=FACE_BOUND('',#146,.T.);
#127=FACE_BOUND('',#147,.T.);
#128=FACE_BOUND('',#148,.T.);
#129=FACE_BOUND('',#149,.T.);
#130=FACE_BOUND('',#150,.T.);
#131=FACE_BOUND('',#151,.T.);
#132=FACE_BOUND('',#159,.T.);
#133=FACE_BOUND('',#160,.T.);
#134=FACE_BOUND('',#163,.T.);
#135=FACE_BOUND('',#164,.T.);
#136=FACE_BOUND('',#165,.T.);
#137=FACE_BOUND('',#166,.T.);
#138=FACE_BOUND('',#169,.T.);
#139=FACE_BOUND('',#170,.T.);
#140=FACE_BOUND('',#171,.T.);
#141=FACE_BOUND('',#172,.T.);
#142=FACE_BOUND('',#173,.T.);
#143=FACE_BOUND('',#174,.T.);
#144=FACE_BOUND('',#175,.T.);
#145=FACE_BOUND('',#176,.T.);
#146=EDGE_LOOP('',(#178));
#147=EDGE_LOOP('',(#179));
#148=EDGE_LOOP('',(#180));
#149=EDGE_LOOP('',(#181));
#150=EDGE_LOOP('',(#182));
#151=EDGE_LOOP('',(#183));
#152=EDGE_LOOP('',(#184));
#153=EDGE_LOOP('',(#185,#186));
#154=EDGE_LOOP('',(#187,#188,#189,#190));
#155=EDGE_LOOP('',(#191,#192));
#156=EDGE_LOOP('',(#193,#194,#195,#196));
#157=EDGE_LOOP('',(#197,#198));
#158=EDGE_LOOP('',(#199,#200,#201,#202));
#159=EDGE_LOOP('',(#203));
#160=EDGE_LOOP('',(#204,#205,#206,#207,#208,#209,#210,#211));
#161=EDGE_LOOP('',(#212,#213));
#162=EDGE_LOOP('',(#214,#215,#216,#217));
#163=EDGE_LOOP('',(#218));
#164=EDGE_LOOP('',(#219,#220,#221,#222,#223,#224,#225,#226,#227,#228,#229,
#230,#231,#232,#233,#234));
#165=EDGE_LOOP('',(#235));
#166=EDGE_LOOP('',(#236));
#167=EDGE_LOOP('',(#237));
#168=EDGE_LOOP('',(#238));
#169=EDGE_LOOP('',(#239));
#170=EDGE_LOOP('',(#240));
#171=EDGE_LOOP('',(#241));
#172=EDGE_LOOP('',(#242));
#173=EDGE_LOOP('',(#243));
#174=EDGE_LOOP('',(#244));
#175=EDGE_LOOP('',(#245));
#176=EDGE_LOOP('',(#246));
#177=EDGE_LOOP('',(#247));
#178=ORIENTED_EDGE('',*,*,#275,.T.);
#179=ORIENTED_EDGE('',*,*,#276,.T.);
#180=ORIENTED_EDGE('',*,*,#277,.T.);
#181=ORIENTED_EDGE('',*,*,#278,.T.);
#182=ORIENTED_EDGE('',*,*,#275,.F.);
#183=ORIENTED_EDGE('',*,*,#277,.F.);
#184=ORIENTED_EDGE('',*,*,#279,.T.);
#185=ORIENTED_EDGE('',*,*,#280,.T.);
#186=ORIENTED_EDGE('',*,*,#281,.T.);
#187=ORIENTED_EDGE('',*,*,#282,.T.);
#188=ORIENTED_EDGE('',*,*,#283,.F.);
#189=ORIENTED_EDGE('',*,*,#284,.T.);
#190=ORIENTED_EDGE('',*,*,#281,.F.);
#191=ORIENTED_EDGE('',*,*,#285,.T.);
#192=ORIENTED_EDGE('',*,*,#286,.T.);
#193=ORIENTED_EDGE('',*,*,#287,.T.);
#194=ORIENTED_EDGE('',*,*,#288,.F.);
#195=ORIENTED_EDGE('',*,*,#289,.T.);
#196=ORIENTED_EDGE('',*,*,#286,.F.);
#197=ORIENTED_EDGE('',*,*,#290,.T.);
#198=ORIENTED_EDGE('',*,*,#291,.T.);
#199=ORIENTED_EDGE('',*,*,#292,.T.);
#200=ORIENTED_EDGE('',*,*,#293,.F.);
#201=ORIENTED_EDGE('',*,*,#294,.T.);
#202=ORIENTED_EDGE('',*,*,#291,.F.);
#203=ORIENTED_EDGE('',*,*,#279,.F.);
#204=ORIENTED_EDGE('',*,*,#295,.T.);
#205=ORIENTED_EDGE('',*,*,#296,.T.);
#206=ORIENTED_EDGE('',*,*,#297,.T.);
#207=ORIENTED_EDGE('',*,*,#283,.T.);
#208=ORIENTED_EDGE('',*,*,#298,.T.);
#209=ORIENTED_EDGE('',*,*,#288,.T.);
#210=ORIENTED_EDGE('',*,*,#299,.T.);
#211=ORIENTED_EDGE('',*,*,#293,.T.);
#212=ORIENTED_EDGE('',*,*,#300,.T.);
#213=ORIENTED_EDGE('',*,*,#301,.T.);
#214=ORIENTED_EDGE('',*,*,#302,.T.);
#215=ORIENTED_EDGE('',*,*,#296,.F.);
#216=ORIENTED_EDGE('',*,*,#303,.T.);
#217=ORIENTED_EDGE('',*,*,#301,.F.);
#218=ORIENTED_EDGE('',*,*,#304,.F.);
#219=ORIENTED_EDGE('',*,*,#302,.F.);
#220=ORIENTED_EDGE('',*,*,#300,.F.);
#221=ORIENTED_EDGE('',*,*,#303,.F.);
#222=ORIENTED_EDGE('',*,*,#295,.F.);
#223=ORIENTED_EDGE('',*,*,#292,.F.);
#224=ORIENTED_EDGE('',*,*,#290,.F.);
#225=ORIENTED_EDGE('',*,*,#294,.F.);
#226=ORIENTED_EDGE('',*,*,#299,.F.);
#227=ORIENTED_EDGE('',*,*,#287,.F.);
#228=ORIENTED_EDGE('',*,*,#285,.F.);
#229=ORIENTED_EDGE('',*,*,#289,.F.);
#230=ORIENTED_EDGE('',*,*,#298,.F.);
#231=ORIENTED_EDGE('',*,*,#282,.F.);
#232=ORIENTED_EDGE('',*,*,#280,.F.);
#233=ORIENTED_EDGE('',*,*,#284,.F.);
#234=ORIENTED_EDGE('',*,*,#297,.F.);
#235=ORIENTED_EDGE('',*,*,#304,.T.);
#236=ORIENTED_EDGE('',*,*,#276,.F.);
#237=ORIENTED_EDGE('',*,*,#278,.F.);
#238=ORIENTED_EDGE('',*,*,#305,.T.);
#239=ORIENTED_EDGE('',*,*,#306,.F.);
#240=ORIENTED_EDGE('',*,*,#305,.F.);
#241=ORIENTED_EDGE('',*,*,#307,.F.);
#242=ORIENTED_EDGE('',*,*,#308,.F.);
#243=ORIENTED_EDGE('',*,*,#309,.T.);
#244=ORIENTED_EDGE('',*,*,#308,.T.);
#245=ORIENTED_EDGE('',*,*,#309,.F.);
#246=ORIENTED_EDGE('',*,*,#306,.T.);
#247=ORIENTED_EDGE('',*,*,#307,.T.);
#248=VERTEX_POINT('',#546);
#249=VERTEX_POINT('',#548);
#250=VERTEX_POINT('',#551);
#251=VERTEX_POINT('',#553);
#252=VERTEX_POINT('',#557);
#253=VERTEX_POINT('',#560);
#254=VERTEX_POINT('',#561);
#255=VERTEX_POINT('',#565);
#256=VERTEX_POINT('',#572);
#257=VERTEX_POINT('',#576);
#258=VERTEX_POINT('',#577);
#259=VERTEX_POINT('',#581);
#260=VERTEX_POINT('',#588);
#261=VERTEX_POINT('',#592);
#262=VERTEX_POINT('',#593);
#263=VERTEX_POINT('',#597);
#264=VERTEX_POINT('',#604);
#265=VERTEX_POINT('',#608);
#266=VERTEX_POINT('',#615);
#267=VERTEX_POINT('',#621);
#268=VERTEX_POINT('',#622);
#269=VERTEX_POINT('',#629);
#270=VERTEX_POINT('',#634);
#271=VERTEX_POINT('',#637);
#272=VERTEX_POINT('',#640);
#273=VERTEX_POINT('',#642);
#274=VERTEX_POINT('',#645);
#275=EDGE_CURVE('',#248,#248,#310,.T.);
#276=EDGE_CURVE('',#249,#249,#311,.T.);
#277=EDGE_CURVE('',#250,#250,#312,.T.);
#278=EDGE_CURVE('',#251,#251,#313,.T.);
#279=EDGE_CURVE('',#252,#252,#314,.T.);
#280=EDGE_CURVE('',#253,#254,#66,.T.);
#281=EDGE_CURVE('',#254,#253,#42,.T.);
#282=EDGE_CURVE('',#254,#255,#43,.T.);
#283=EDGE_CURVE('',#256,#255,#334,.T.);
#284=EDGE_CURVE('',#256,#253,#44,.T.);
#285=EDGE_CURVE('',#257,#258,#67,.T.);
#286=EDGE_CURVE('',#258,#257,#45,.T.);
#287=EDGE_CURVE('',#258,#259,#46,.T.);
#288=EDGE_CURVE('',#260,#259,#335,.T.);
#289=EDGE_CURVE('',#260,#257,#47,.T.);
#290=EDGE_CURVE('',#261,#262,#68,.T.);
#291=EDGE_CURVE('',#262,#261,#48,.T.);
#292=EDGE_CURVE('',#262,#263,#49,.T.);
#293=EDGE_CURVE('',#264,#263,#336,.T.);
#294=EDGE_CURVE('',#264,#261,#50,.T.);
#295=EDGE_CURVE('',#263,#265,#315,.T.);
#296=EDGE_CURVE('',#265,#266,#337,.T.);
#297=EDGE_CURVE('',#266,#256,#316,.T.);
#298=EDGE_CURVE('',#255,#260,#317,.T.);
#299=EDGE_CURVE('',#259,#264,#318,.T.);
#300=EDGE_CURVE('',#267,#268,#69,.T.);
#301=EDGE_CURVE('',#268,#267,#51,.T.);
#302=EDGE_CURVE('',#268,#266,#52,.T.);
#303=EDGE_CURVE('',#265,#267,#53,.T.);
#304=EDGE_CURVE('',#269,#269,#319,.T.);
#305=EDGE_CURVE('',#270,#270,#320,.T.);
#306=EDGE_CURVE('',#271,#271,#321,.T.);
#307=EDGE_CURVE('',#272,#272,#322,.T.);
#308=EDGE_CURVE('',#273,#273,#323,.T.);
#309=EDGE_CURVE('',#274,#274,#324,.T.);
#310=CIRCLE('',#373,1.74999999999999);
#311=CIRCLE('',#374,1.75);
#312=CIRCLE('',#376,1.85717967697245);
#313=CIRCLE('',#377,2.07881427257041);
#314=CIRCLE('',#380,0.679999999999999);
#315=CIRCLE('',#391,1.68);
#316=CIRCLE('',#392,1.68);
#317=CIRCLE('',#393,1.68);
#318=CIRCLE('',#394,1.68);
#319=CIRCLE('',#399,1.68);
#320=CIRCLE('',#403,2.07881427257041);
#321=CIRCLE('',#405,2.55436948400958);
#322=CIRCLE('',#407,1.72499999999998);
#323=CIRCLE('',#408,2.0883736160022);
#324=CIRCLE('',#410,2.55436948400958);
#325=CURVE_STYLE('',#329,POSITIVE_LENGTH_MEASURE(0.18),#339);
#326=CURVE_STYLE('',#330,POSITIVE_LENGTH_MEASURE(0.13),#366);
#327=CURVE_STYLE('',#331,POSITIVE_LENGTH_MEASURE(0.18),#365);
#328=CURVE_STYLE('',#332,POSITIVE_LENGTH_MEASURE(0.18),#365);
#329=DRAUGHTING_PRE_DEFINED_CURVE_FONT('continuous');
#330=DRAUGHTING_PRE_DEFINED_CURVE_FONT('continuous');
#331=DRAUGHTING_PRE_DEFINED_CURVE_FONT('continuous');
#332=DRAUGHTING_PRE_DEFINED_CURVE_FONT('continuous');
#333=B_SPLINE_CURVE_WITH_KNOTS('CUTTING PART LINE',3,(#520,#521,#522,#523,
#524,#525,#526,#527,#528,#529,#530,#531,#532,#533,#534,#535,#536,#537,#538,
#539,#540,#541),.UNSPECIFIED.,.T.,.F.,(4,3,3,3,3,3,3,4),(0.,0.102693712556691,
0.502834832762959,0.588050071321517,0.61343620444848,0.711836442720377,
0.831199469933667,1.),.UNSPECIFIED.);
#334=B_SPLINE_CURVE_WITH_KNOTS('',3,(#566,#567,#568,#569,#570,#571),
 .UNSPECIFIED.,.F.,.F.,(4,2,4),(0.,0.5,1.),.UNSPECIFIED.);
#335=B_SPLINE_CURVE_WITH_KNOTS('',3,(#582,#583,#584,#585,#586,#587),
 .UNSPECIFIED.,.F.,.F.,(4,2,4),(0.,0.5,1.),.UNSPECIFIED.);
#336=B_SPLINE_CURVE_WITH_KNOTS('',3,(#598,#599,#600,#601,#602,#603),
 .UNSPECIFIED.,.F.,.F.,(4,2,4),(0.,0.5,1.),.UNSPECIFIED.);
#337=B_SPLINE_CURVE_WITH_KNOTS('',3,(#609,#610,#611,#612,#613,#614),
 .UNSPECIFIED.,.F.,.F.,(4,2,4),(0.,0.5,1.),.UNSPECIFIED.);
#338=DRAUGHTING_PRE_DEFINED_COLOUR('white');
#339=DRAUGHTING_PRE_DEFINED_COLOUR('blue');
#340=PRESENTATION_LAYER_ASSIGNMENT('1','Layer 1',(#517,#518,#519,#333,#370,
#371,#372,#38,#39));
#341=STYLED_ITEM('',(#350),#517);
#342=STYLED_ITEM('',(#351),#518);
#343=STYLED_ITEM('',(#352),#519);
#344=STYLED_ITEM('',(#353),#333);
#345=STYLED_ITEM('',(#354),#370);
#346=STYLED_ITEM('',(#355),#371);
#347=STYLED_ITEM('',(#356),#372);
#348=STYLED_ITEM('',(#357),#38);
#349=STYLED_ITEM('',(#358),#39);
#350=PRESENTATION_STYLE_ASSIGNMENT((#359));
#351=PRESENTATION_STYLE_ASSIGNMENT((#360));
#352=PRESENTATION_STYLE_ASSIGNMENT((#361));
#353=PRESENTATION_STYLE_ASSIGNMENT((#325));
#354=PRESENTATION_STYLE_ASSIGNMENT((#326));
#355=PRESENTATION_STYLE_ASSIGNMENT((#327));
#356=PRESENTATION_STYLE_ASSIGNMENT((#328));
#357=PRESENTATION_STYLE_ASSIGNMENT((#28));
#358=PRESENTATION_STYLE_ASSIGNMENT((#29));
#359=POINT_STYLE('',#362,POSITIVE_LENGTH_MEASURE(3.),#365);
#360=POINT_STYLE('',#363,POSITIVE_LENGTH_MEASURE(3.),#338);
#361=POINT_STYLE('',#364,POSITIVE_LENGTH_MEASURE(3.),#365);
#362=PRE_DEFINED_POINT_MARKER_SYMBOL('plus');
#363=PRE_DEFINED_POINT_MARKER_SYMBOL('plus');
#364=PRE_DEFINED_POINT_MARKER_SYMBOL('plus');
#365=COLOUR_RGB('Medium Maroon',0.6,0.4,0.4);
#366=COLOUR_RGB('Silver Gray',0.6,0.6,0.6);
#367=COLOUR_RGB('TLS_NOCUT',0.498023956664378,0.498023956664378,0.498023956664378);
#368=COLOUR_RGB('TLS_CUT',0.8,0.8,0.8);
#369=AXIS2_PLACEMENT_3D('',#516,#414,#415);
#370=AXIS2_PLACEMENT_3D('PCS',#542,#416,#417);
#371=AXIS2_PLACEMENT_3D('MCS',#543,#418,#419);
#372=AXIS2_PLACEMENT_3D('CIP',#544,#420,#421);
#373=AXIS2_PLACEMENT_3D('',#545,#422,#423);
#374=AXIS2_PLACEMENT_3D('',#547,#424,#425);
#375=AXIS2_PLACEMENT_3D('',#549,#426,#427);
#376=AXIS2_PLACEMENT_3D('',#550,#428,#429);
#377=AXIS2_PLACEMENT_3D('',#552,#430,#431);
#378=AXIS2_PLACEMENT_3D('',#554,#432,#433);
#379=AXIS2_PLACEMENT_3D('',#555,#434,#435);
#380=AXIS2_PLACEMENT_3D('',#556,#436,#437);
#381=AXIS2_PLACEMENT_3D('',#558,#438,#439);
#382=AXIS2_PLACEMENT_3D('',#559,#440,#441);
#383=AXIS2_PLACEMENT_3D('',#563,#443,#444);
#384=AXIS2_PLACEMENT_3D('',#574,#447,#448);
#385=AXIS2_PLACEMENT_3D('',#575,#449,#450);
#386=AXIS2_PLACEMENT_3D('',#579,#452,#453);
#387=AXIS2_PLACEMENT_3D('',#590,#456,#457);
#388=AXIS2_PLACEMENT_3D('',#591,#458,#459);
#389=AXIS2_PLACEMENT_3D('',#595,#461,#462);
#390=AXIS2_PLACEMENT_3D('',#606,#465,#466);
#391=AXIS2_PLACEMENT_3D('',#607,#467,#468);
#392=AXIS2_PLACEMENT_3D('',#616,#469,#470);
#393=AXIS2_PLACEMENT_3D('',#617,#471,#472);
#394=AXIS2_PLACEMENT_3D('',#618,#473,#474);
#395=AXIS2_PLACEMENT_3D('',#619,#475,#476);
#396=AXIS2_PLACEMENT_3D('',#620,#477,#478);
#397=AXIS2_PLACEMENT_3D('',#624,#480,#481);
#398=AXIS2_PLACEMENT_3D('',#627,#484,#485);
#399=AXIS2_PLACEMENT_3D('',#628,#486,#487);
#400=AXIS2_PLACEMENT_3D('',#630,#488,#489);
#401=AXIS2_PLACEMENT_3D('',#631,#490,#491);
#402=AXIS2_PLACEMENT_3D('',#632,#492,#493);
#403=AXIS2_PLACEMENT_3D('',#633,#494,#495);
#404=AXIS2_PLACEMENT_3D('',#635,#496,#497);
#405=AXIS2_PLACEMENT_3D('',#636,#498,#499);
#406=AXIS2_PLACEMENT_3D('',#638,#500,#501);
#407=AXIS2_PLACEMENT_3D('',#639,#502,#503);
#408=AXIS2_PLACEMENT_3D('',#641,#504,#505);
#409=AXIS2_PLACEMENT_3D('',#643,#506,#507);
#410=AXIS2_PLACEMENT_3D('',#644,#508,#509);
#411=AXIS2_PLACEMENT_3D('',#646,#510,#511);
#412=AXIS2_PLACEMENT_3D('',#647,#512,#513);
#413=AXIS2_PLACEMENT_3D('',#648,#514,#515);
#414=DIRECTION('',(0.,0.,1.));
#415=DIRECTION('',(1.,0.,0.));
#416=DIRECTION('',(0.,0.,1.));
#417=DIRECTION('',(1.,0.,0.));
#418=DIRECTION('',(0.,0.,1.));
#419=DIRECTION('',(1.,0.,0.));
#420=DIRECTION('',(0.,0.,1.));
#421=DIRECTION('',(1.,0.,0.));
#422=DIRECTION('',(-2.49622098977259E-16,0.,1.));
#423=DIRECTION('',(-1.,0.,0.));
#424=DIRECTION('',(0.,0.,-1.));
#425=DIRECTION('',(-1.,0.,0.));
#426=DIRECTION('',(2.49622098977259E-16,0.,-1.));
#427=DIRECTION('',(-1.,0.,0.));
#428=DIRECTION('',(2.49622098977259E-16,0.,-1.));
#429=DIRECTION('',(-1.,0.,0.));
#430=DIRECTION('',(0.,0.,1.));
#431=DIRECTION('',(-1.,0.,0.));
#432=DIRECTION('',(2.49622098977259E-16,0.,-1.));
#433=DIRECTION('',(-1.,0.,-3.47483732816945E-16));
#434=DIRECTION('',(2.49622098977259E-16,0.,-1.));
#435=DIRECTION('',(-1.,0.,0.));
#436=DIRECTION('',(0.,0.,1.));
#437=DIRECTION('',(1.,0.,0.));
#438=DIRECTION('',(3.80427914496377E-16,0.,-1.));
#439=DIRECTION('',(-1.,0.,-3.80427914496377E-16));
#440=DIRECTION('',(8.28344032153662E-16,0.707106781186547,0.707106781186548));
#441=DIRECTION('',(-8.28344032153662E-16,-0.707106781186548,0.707106781186547));
#442=DIRECTION('',(1.,-1.17145536458252E-15,0.));
#443=DIRECTION('',(8.28344032153662E-16,0.707106781186547,0.707106781186548));
#444=DIRECTION('',(8.28330459778925E-16,0.707106781186548,-0.707106781186547));
#445=DIRECTION('',(0.,0.,1.));
#446=DIRECTION('',(0.,0.,-1.));
#447=DIRECTION('',(1.17145536458252E-15,1.,0.));
#448=DIRECTION('',(0.,0.,-1.));
#449=DIRECTION('',(-0.707106781186547,1.65668806430732E-15,0.707106781186548));
#450=DIRECTION('',(0.707106781186548,-1.65668806430732E-15,0.707106781186547));
#451=DIRECTION('',(2.34291072916505E-15,1.,0.));
#452=DIRECTION('',(-0.707106781186547,1.65668806430732E-15,0.707106781186548));
#453=DIRECTION('',(-0.707106781186548,1.65666091955785E-15,-0.707106781186547));
#454=DIRECTION('',(0.,0.,1.));
#455=DIRECTION('',(0.,0.,-1.));
#456=DIRECTION('',(-1.,2.34291072916505E-15,0.));
#457=DIRECTION('',(0.,0.,-1.));
#458=DIRECTION('',(-2.64204134232936E-15,-0.707106781186547,0.707106781186548));
#459=DIRECTION('',(2.64204134232936E-15,0.707106781186548,0.707106781186547));
#460=DIRECTION('',(-1.,3.7364106986726E-15,0.));
#461=DIRECTION('',(-2.64204134232936E-15,-0.707106781186547,0.707106781186548));
#462=DIRECTION('',(-2.64198385391268E-15,-0.707106781186548,-0.707106781186547));
#463=DIRECTION('',(0.,0.,1.));
#464=DIRECTION('',(0.,0.,-1.));
#465=DIRECTION('',(-3.7364106986726E-15,-1.,0.));
#466=DIRECTION('',(0.,0.,-1.));
#467=DIRECTION('',(0.,0.,1.));
#468=DIRECTION('',(-1.,0.,0.));
#469=DIRECTION('',(0.,0.,1.));
#470=DIRECTION('',(-1.,0.,0.));
#471=DIRECTION('',(0.,0.,1.));
#472=DIRECTION('',(-1.,0.,0.));
#473=DIRECTION('',(0.,0.,1.));
#474=DIRECTION('',(-1.,0.,0.));
#475=DIRECTION('',(0.,0.,-1.));
#476=DIRECTION('',(-1.,0.,0.));
#477=DIRECTION('',(0.707106781186547,0.,0.707106781186548));
#478=DIRECTION('',(-0.707106781186548,0.,0.707106781186547));
#479=DIRECTION('',(0.,-1.,0.));
#480=DIRECTION('',(0.707106781186547,0.,0.707106781186548));
#481=DIRECTION('',(0.707106781186548,0.,-0.707106781186547));
#482=DIRECTION('',(0.,0.,1.));
#483=DIRECTION('',(0.,0.,-1.));
#484=DIRECTION('',(1.,0.,0.));
#485=DIRECTION('',(0.,0.,-1.));
#486=DIRECTION('',(0.,0.,-1.));
#487=DIRECTION('',(1.,0.,0.));
#488=DIRECTION('',(0.,0.,1.));
#489=DIRECTION('',(1.,0.,0.));
#490=DIRECTION('',(0.,0.,-1.));
#491=DIRECTION('',(-1.,0.,-4.49701484375062E-17));
#492=DIRECTION('',(0.,0.,-1.));
#493=DIRECTION('',(-1.,0.,0.));
#494=DIRECTION('',(0.,0.,1.));
#495=DIRECTION('',(1.,0.,0.));
#496=DIRECTION('',(0.,0.,1.));
#497=DIRECTION('',(1.,0.,0.));
#498=DIRECTION('',(0.,0.,-1.));
#499=DIRECTION('',(-1.,0.,0.));
#500=DIRECTION('',(0.,0.,-1.));
#501=DIRECTION('',(-1.,0.,-3.40571987635992E-16));
#502=DIRECTION('',(9.06853497640132E-17,0.,-1.));
#503=DIRECTION('',(1.,0.,0.));
#504=DIRECTION('',(0.,0.,1.));
#505=DIRECTION('',(-1.,0.,0.));
#506=DIRECTION('',(-5.64654277512241E-16,0.,1.));
#507=DIRECTION('',(1.,0.,5.95165087689311E-16));
#508=DIRECTION('',(0.,0.,-1.));
#509=DIRECTION('',(1.,0.,0.));
#510=DIRECTION('',(0.,0.,1.));
#511=DIRECTION('',(1.,0.,-2.2922744910944E-16));
#512=DIRECTION('',(0.,0.,1.));
#513=DIRECTION('',(1.,0.,0.));
#514=DIRECTION('',(-9.06853497640132E-17,0.,1.));
#515=DIRECTION('',(1.,0.,9.71445146547012E-17));
#516=CARTESIAN_POINT('',(0.,0.,0.));
#517=CARTESIAN_POINT('',(0.,0.,-21.));
#518=CARTESIAN_POINT('CRP',(-2.55436948400958,0.,-70.));
#519=CARTESIAN_POINT('CIP_DCSYS',(0.,0.,-70.));
#520=CARTESIAN_POINT('',(-2.07881427257041,0.,-62.));
#521=CARTESIAN_POINT('',(-1.38587618171361,0.,-62.));
#522=CARTESIAN_POINT('',(-0.692938090856805,0.,-62.));
#523=CARTESIAN_POINT('',(0.,0.,-62.));
#524=CARTESIAN_POINT('',(0.,0.,-64.7));
#525=CARTESIAN_POINT('',(0.,0.,-67.4));
#526=CARTESIAN_POINT('',(0.,0.,-70.1));
#527=CARTESIAN_POINT('',(-0.574999999999986,0.,-70.1));
#528=CARTESIAN_POINT('',(-1.14999999999997,0.,-70.1));
#529=CARTESIAN_POINT('',(-1.72499999999996,0.,-70.1));
#530=CARTESIAN_POINT('',(-1.84612453866737,0.,-69.9788754613326));
#531=CARTESIAN_POINT('',(-1.96724907733477,0.,-69.8577509226652));
#532=CARTESIAN_POINT('',(-2.08837361600219,0.,-69.7366263839978));
#533=CARTESIAN_POINT('',(-2.24370557200466,0.,-69.0910842559985));
#534=CARTESIAN_POINT('',(-2.39903752800712,0.,-68.4455421279993));
#535=CARTESIAN_POINT('',(-2.55436948400958,0.,-67.8));
#536=CARTESIAN_POINT('',(-2.55436948400958,0.,-66.9945837175988));
#537=CARTESIAN_POINT('',(-2.55436948400958,0.,-66.1891674351975));
#538=CARTESIAN_POINT('',(-2.55436948400958,0.,-65.3837511527963));
#539=CARTESIAN_POINT('',(-2.39585108019653,0.,-64.2558341018642));
#540=CARTESIAN_POINT('',(-2.23733267638347,0.,-63.1279170509321));
#541=CARTESIAN_POINT('',(-2.07881427257041,0.,-62.));
#542=CARTESIAN_POINT('',(0.,0.,0.));
#543=CARTESIAN_POINT('',(0.,0.,-21.));
#544=CARTESIAN_POINT('',(0.,0.,-70.));
#545=CARTESIAN_POINT('',(6.4656637826315E-15,0.,-61.2161176197093));
#546=CARTESIAN_POINT('',(-1.74999999999999,0.,-61.2161176197093));
#547=CARTESIAN_POINT('',(0.,0.,-6.67));
#548=CARTESIAN_POINT('',(-1.75,0.,-6.67));
#549=CARTESIAN_POINT('',(6.43929354282591E-15,0.,-61.1104769736542));
#550=CARTESIAN_POINT('',(6.5655126222224E-15,0.,-61.6161176197093));
#551=CARTESIAN_POINT('',(-1.85717967697244,0.,-61.6161176197093));
#552=CARTESIAN_POINT('',(0.,0.,-62.));
#553=CARTESIAN_POINT('',(-2.07881427257041,0.,-62.));
#554=CARTESIAN_POINT('',(6.51917261449863E-15,0.,-61.4304769736542));
#555=CARTESIAN_POINT('',(6.4656637826315E-15,0.,-61.2161176197093));
#556=CARTESIAN_POINT('',(0.,0.,0.));
#557=CARTESIAN_POINT('',(0.679999999999999,0.,0.));
#558=CARTESIAN_POINT('',(1.95,0.,3.70917216633968E-16));
#559=CARTESIAN_POINT('',(0.,0.,-4.65));
#560=CARTESIAN_POINT('',(0.999949998749938,1.35,-6.));
#561=CARTESIAN_POINT('',(-0.999949998749935,1.35,-6.));
#562=CARTESIAN_POINT('',(4.05,1.35,-6.));
#563=CARTESIAN_POINT('',(4.05,1.35,-6.));
#564=CARTESIAN_POINT('',(-0.999949998749935,1.35,20.9080749503476));
#565=CARTESIAN_POINT('',(-0.999949998749935,1.35,-1.));
#566=CARTESIAN_POINT('',(0.999949998749975,1.35,-1.00000000000002));
#567=CARTESIAN_POINT('',(0.694533467351111,1.35,-0.818213535600907));
#568=CARTESIAN_POINT('',(0.354132132618952,1.35,-0.67003842289457));
#569=CARTESIAN_POINT('',(-0.353839125377581,1.35,-0.66996159300418));
#570=CARTESIAN_POINT('',(-0.69606985506541,1.35,-0.819128006370553));
#571=CARTESIAN_POINT('',(-0.999949998749936,1.35,-1.));
#572=CARTESIAN_POINT('',(0.999949998749987,1.35,-1.));
#573=CARTESIAN_POINT('',(0.999949998749938,1.35,20.9080749503476));
#574=CARTESIAN_POINT('',(4.05,1.35,10.));
#575=CARTESIAN_POINT('',(0.,0.,-4.65));
#576=CARTESIAN_POINT('',(-1.35,0.999949998749941,-6.));
#577=CARTESIAN_POINT('',(-1.35,-0.999949998749934,-6.));
#578=CARTESIAN_POINT('',(-1.34999999999999,4.05,-6.));
#579=CARTESIAN_POINT('',(-1.34999999999999,4.05,-6.));
#580=CARTESIAN_POINT('',(-1.35,-0.999949998749933,20.9080749503476));
#581=CARTESIAN_POINT('',(-1.35,-0.999949998749933,-1.));
#582=CARTESIAN_POINT('',(-1.35,0.99994999874994,-1.));
#583=CARTESIAN_POINT('',(-1.35,0.69606985506542,-0.819128006370556));
#584=CARTESIAN_POINT('',(-1.35,0.353839125377599,-0.669961593004186));
#585=CARTESIAN_POINT('',(-1.35,-0.354132132618919,-0.670038422894565));
#586=CARTESIAN_POINT('',(-1.35,-0.694533467351074,-0.818213535600892));
#587=CARTESIAN_POINT('',(-1.35,-0.999949998749934,-0.999999999999999));
#588=CARTESIAN_POINT('',(-1.35,0.99994999874994,-1.));
#589=CARTESIAN_POINT('',(-1.35,0.99994999874994,20.9080749503476));
#590=CARTESIAN_POINT('',(-1.34999999999999,4.05,10.));
#591=CARTESIAN_POINT('',(0.,0.,-4.65));
#592=CARTESIAN_POINT('',(-0.999949998749942,-1.35,-6.));
#593=CARTESIAN_POINT('',(0.999949998749932,-1.35,-6.));
#594=CARTESIAN_POINT('',(-4.05000000000001,-1.34999999999998,-6.));
#595=CARTESIAN_POINT('',(-4.05000000000001,-1.34999999999998,-6.));
#596=CARTESIAN_POINT('',(0.999949998749932,-1.35,20.9080749503476));
#597=CARTESIAN_POINT('',(0.999949998749932,-1.35,-1.));
#598=CARTESIAN_POINT('',(-0.999949998749942,-1.35,-1.));
#599=CARTESIAN_POINT('',(-0.696069855065423,-1.35,-0.819128006370556));
#600=CARTESIAN_POINT('',(-0.353839125377601,-1.35,-0.669961593004186));
#601=CARTESIAN_POINT('',(0.354132132618917,-1.35,-0.670038422894565));
#602=CARTESIAN_POINT('',(0.694533467351072,-1.35,-0.818213535600892));
#603=CARTESIAN_POINT('',(0.999949998749933,-1.35,-0.999999999999999));
#604=CARTESIAN_POINT('',(-0.999949998749942,-1.35,-1.));
#605=CARTESIAN_POINT('',(-0.999949998749942,-1.35,20.9080749503476));
#606=CARTESIAN_POINT('',(-4.05000000000001,-1.34999999999998,10.));
#607=CARTESIAN_POINT('',(0.,0.,-1.));
#608=CARTESIAN_POINT('',(1.35,-0.999949998749986,-1.));
#609=CARTESIAN_POINT('',(1.35,-0.999949998749973,-1.00000000000002));
#610=CARTESIAN_POINT('',(1.35,-0.694533467351109,-0.818213535600907));
#611=CARTESIAN_POINT('',(1.35,-0.354132132618949,-0.67003842289457));
#612=CARTESIAN_POINT('',(1.35,0.353839125377583,-0.66996159300418));
#613=CARTESIAN_POINT('',(1.35,0.696069855065412,-0.819128006370552));
#614=CARTESIAN_POINT('',(1.35,0.999949998749937,-1.));
#615=CARTESIAN_POINT('',(1.35,0.999949998749937,-1.));
#616=CARTESIAN_POINT('',(0.,0.,-1.));
#617=CARTESIAN_POINT('',(0.,0.,-1.));
#618=CARTESIAN_POINT('',(0.,0.,-1.));
#619=CARTESIAN_POINT('',(0.,0.,0.));
#620=CARTESIAN_POINT('',(0.,0.,-4.65));
#621=CARTESIAN_POINT('',(1.35,-0.999949998749938,-6.));
#622=CARTESIAN_POINT('',(1.35,0.999949998749938,-6.));
#623=CARTESIAN_POINT('',(1.35,-4.05,-6.));
#624=CARTESIAN_POINT('',(1.35,-4.05,-6.));
#625=CARTESIAN_POINT('',(1.35,0.999949998749937,20.9080749503476));
#626=CARTESIAN_POINT('',(1.35,-0.999949998749937,20.9080749503476));
#627=CARTESIAN_POINT('',(1.35,-4.05,10.));
#628=CARTESIAN_POINT('',(0.,0.,-6.6));
#629=CARTESIAN_POINT('',(1.68,0.,-6.6));
#630=CARTESIAN_POINT('',(0.,0.,20.9080749503476));
#631=CARTESIAN_POINT('',(0.,0.,-7.87));
#632=CARTESIAN_POINT('',(0.,0.,-62.));
#633=CARTESIAN_POINT('',(0.,0.,-62.));
#634=CARTESIAN_POINT('',(2.07881427257041,0.,-62.));
#635=CARTESIAN_POINT('',(0.,0.,-62.));
#636=CARTESIAN_POINT('',(0.,0.,-65.3837511527963));
#637=CARTESIAN_POINT('',(-2.55436948400958,0.,-65.3837511527963));
#638=CARTESIAN_POINT('',(0.,0.,-62.));
#639=CARTESIAN_POINT('',(2.0445398782518E-14,0.,-70.1));
#640=CARTESIAN_POINT('',(1.725,0.,-70.1));
#641=CARTESIAN_POINT('',(2.03036064311774E-14,0.,-69.7366263839978));
#642=CARTESIAN_POINT('',(-2.08837361600218,0.,-69.7366263839978));
#643=CARTESIAN_POINT('',(1.99840144432528E-14,0.,-69.1706305159904));
#644=CARTESIAN_POINT('',(0.,0.,-67.8));
#645=CARTESIAN_POINT('',(2.55436948400958,0.,-67.8));
#646=CARTESIAN_POINT('',(0.,0.,-72.));
#647=CARTESIAN_POINT('',(0.,0.,20.9080749503476));
#648=CARTESIAN_POINT('',(10.5,0.,-70.1));
#649=MECHANICAL_DESIGN_GEOMETRIC_PRESENTATION_REPRESENTATION('',(#341,#342,
#343,#344,#345,#346,#347,#348,#349),#650);
#650=(
GEOMETRIC_REPRESENTATION_CONTEXT(3)
GLOBAL_UNCERTAINTY_ASSIGNED_CONTEXT((#651))
GLOBAL_UNIT_ASSIGNED_CONTEXT((#657,#653,#652))
REPRESENTATION_CONTEXT('TOOL','TOP_LEVEL_ASSEMBLY_PART')
);
#651=UNCERTAINTY_MEASURE_WITH_UNIT(LENGTH_MEASURE(0.0508),#657,
'DISTANCE_ACCURACY_VALUE','Maximum Tolerance applied to model');
#652=(
NAMED_UNIT(*)
SI_UNIT($,.STERADIAN.)
SOLID_ANGLE_UNIT()
);
#653=(
CONVERSION_BASED_UNIT('DEGREE',#655)
NAMED_UNIT(#654)
PLANE_ANGLE_UNIT()
);
#654=DIMENSIONAL_EXPONENTS(0.,0.,0.,0.,0.,0.,0.);
#655=PLANE_ANGLE_MEASURE_WITH_UNIT(PLANE_ANGLE_MEASURE(0.0174532925),#656);
#656=(
NAMED_UNIT(*)
PLANE_ANGLE_UNIT()
SI_UNIT($,.RADIAN.)
);
#657=(
LENGTH_UNIT()
NAMED_UNIT(*)
SI_UNIT(.MILLI.,.METRE.)
);
ENDSEC;
END-ISO-10303-21;
