ISO-10303-21;
HEADER;
/* Generated by software containing ST-Developer
 * from STEP Tools, Inc. (www.steptools.com) 
 */
/* OPTION: using custom schema-name function */

FILE_DESCRIPTION(
/* description */ (''),
/* implementation_level */ '2;1');

FILE_NAME(
/* name */ 'TOOL.STP',
/* time_stamp */ '2023-03-31T06:51:20+02:00',
/* author */ (''),
/* organization */ ('SMS'),
/* preprocessor_version */ 'ST-DEVELOPER v16.7',
/* originating_system */ 'SIEMENS PLM Software NX 12.0',
/* authorisation */ '');

FILE_SCHEMA (('AUTOMOTIVE_DESIGN { 1 0 10303 214 3 1 1 1 }'));
ENDSEC;

DATA;
#10=CONSTRUCTIVE_GEOMETRY_REPRESENTATION_RELATIONSHIP(
'supplemental geometry','',#26,#11);
#11=CONSTRUCTIVE_GEOMETRY_REPRESENTATION('supplemental geometry',(#244,
#245,#246),#409);
#12=GEOMETRICALLY_BOUNDED_WIREFRAME_SHAPE_REPRESENTATION('Tool-None',(#27),
#409);
#13=SHAPE_REPRESENTATION_RELATIONSHIP('None',
'relationship between Tool-None and Tool-None',#26,#15);
#14=SHAPE_REPRESENTATION_RELATIONSHIP('None',
'relationship between Tool-None and Tool-None',#26,#12);
#15=ADVANCED_BREP_SHAPE_REPRESENTATION('Tool-None',(#38,#39),#409);
#16=SHAPE_DEFINITION_REPRESENTATION(#17,#26);
#17=PRODUCT_DEFINITION_SHAPE('','',#18);
#18=PRODUCT_DEFINITION(' ','',#20,#19);
#19=PRODUCT_DEFINITION_CONTEXT('part definition',#25,'design');
#20=PRODUCT_DEFINITION_FORMATION_WITH_SPECIFIED_SOURCE(' ',' ',#22,
 .NOT_KNOWN.);
#21=PRODUCT_RELATED_PRODUCT_CATEGORY('part','',(#22));
#22=PRODUCT('Tool','Tool',' ',(#23));
#23=PRODUCT_CONTEXT(' ',#25,'mechanical');
#24=APPLICATION_PROTOCOL_DEFINITION('international standard',
'automotive_design',2010,#25);
#25=APPLICATION_CONTEXT(
'core data for automotive mechanical design processes');
#26=SHAPE_REPRESENTATION('Tool-None',(#243),#409);
#27=GEOMETRIC_CURVE_SET('None',(#341,#342,#343,#210));
#28=SURFACE_STYLE_USAGE(.BOTH.,#30);
#29=SURFACE_STYLE_USAGE(.BOTH.,#31);
#30=SURFACE_SIDE_STYLE('',(#32));
#31=SURFACE_SIDE_STYLE('',(#33));
#32=SURFACE_STYLE_FILL_AREA(#34);
#33=SURFACE_STYLE_FILL_AREA(#35);
#34=FILL_AREA_STYLE('',(#36));
#35=FILL_AREA_STYLE('',(#37));
#36=FILL_AREA_STYLE_COLOUR('',#241);
#37=FILL_AREA_STYLE_COLOUR('',#242);
#38=MANIFOLD_SOLID_BREP('NOCUT',#40);
#39=MANIFOLD_SOLID_BREP('CUT',#41);
#40=CLOSED_SHELL('',(#61,#62,#63,#64,#65,#66,#67,#68,#69,#70,#71));
#41=CLOSED_SHELL('',(#72,#73,#74,#75));
#42=PLANE('',#261);
#43=PLANE('',#263);
#44=PLANE('',#264);
#45=PLANE('',#265);
#46=PLANE('',#266);
#47=PLANE('',#268);
#48=PLANE('',#270);
#49=FACE_OUTER_BOUND('',#117,.T.);
#50=FACE_OUTER_BOUND('',#120,.T.);
#51=FACE_OUTER_BOUND('',#121,.T.);
#52=FACE_OUTER_BOUND('',#122,.T.);
#53=FACE_OUTER_BOUND('',#123,.T.);
#54=FACE_OUTER_BOUND('',#124,.T.);
#55=FACE_OUTER_BOUND('',#125,.T.);
#56=TOROIDAL_SURFACE('',#257,3.45,2.);
#57=TOROIDAL_SURFACE('',#259,3.45,2.);
#58=TOROIDAL_SURFACE('',#273,1.2,0.3);
#59=CONICAL_SURFACE('',#253,1.45,30.);
#60=CONICAL_SURFACE('',#262,2.6,45.);
#61=ADVANCED_FACE('',(#89,#90,#91),#76,.T.);
#62=ADVANCED_FACE('',(#92,#93),#59,.T.);
#63=ADVANCED_FACE('',(#94,#95),#77,.T.);
#64=ADVANCED_FACE('',(#96,#97),#56,.F.);
#65=ADVANCED_FACE('',(#98,#99),#57,.F.);
#66=ADVANCED_FACE('',(#49),#42,.F.);
#67=ADVANCED_FACE('',(#100,#101),#60,.T.);
#68=ADVANCED_FACE('',(#50),#43,.T.);
#69=ADVANCED_FACE('',(#51),#44,.T.);
#70=ADVANCED_FACE('',(#52),#45,.T.);
#71=ADVANCED_FACE('',(#53),#46,.T.);
#72=ADVANCED_FACE('',(#54),#47,.T.);
#73=ADVANCED_FACE('',(#55),#48,.F.);
#74=ADVANCED_FACE('',(#102,#103),#78,.T.);
#75=ADVANCED_FACE('',(#104,#105),#58,.T.);
#76=CYLINDRICAL_SURFACE('',#251,3.);
#77=CYLINDRICAL_SURFACE('',#256,1.45);
#78=CYLINDRICAL_SURFACE('',#272,1.5);
#79=LINE('',#370,#83);
#80=LINE('',#374,#84);
#81=LINE('',#392,#85);
#82=LINE('',#394,#86);
#83=VECTOR('',#288,1.);
#84=VECTOR('',#291,1.);
#85=VECTOR('',#316,1.);
#86=VECTOR('',#319,1.);
#87=ELLIPSE('',#249,4.24264068711928,3.);
#88=ELLIPSE('',#250,4.24264068711929,3.);
#89=FACE_BOUND('',#106,.T.);
#90=FACE_BOUND('',#107,.T.);
#91=FACE_BOUND('',#108,.T.);
#92=FACE_BOUND('',#109,.T.);
#93=FACE_BOUND('',#110,.T.);
#94=FACE_BOUND('',#111,.T.);
#95=FACE_BOUND('',#112,.T.);
#96=FACE_BOUND('',#113,.T.);
#97=FACE_BOUND('',#114,.T.);
#98=FACE_BOUND('',#115,.T.);
#99=FACE_BOUND('',#116,.T.);
#100=FACE_BOUND('',#118,.T.);
#101=FACE_BOUND('',#119,.T.);
#102=FACE_BOUND('',#126,.T.);
#103=FACE_BOUND('',#127,.T.);
#104=FACE_BOUND('',#128,.T.);
#105=FACE_BOUND('',#129,.T.);
#106=EDGE_LOOP('',(#130));
#107=EDGE_LOOP('',(#131));
#108=EDGE_LOOP('',(#132,#133,#134,#135));
#109=EDGE_LOOP('',(#136));
#110=EDGE_LOOP('',(#137));
#111=EDGE_LOOP('',(#138));
#112=EDGE_LOOP('',(#139));
#113=EDGE_LOOP('',(#140));
#114=EDGE_LOOP('',(#141));
#115=EDGE_LOOP('',(#142));
#116=EDGE_LOOP('',(#143));
#117=EDGE_LOOP('',(#144));
#118=EDGE_LOOP('',(#145));
#119=EDGE_LOOP('',(#146));
#120=EDGE_LOOP('',(#147,#148));
#121=EDGE_LOOP('',(#149,#150,#151,#152));
#122=EDGE_LOOP('',(#153,#154));
#123=EDGE_LOOP('',(#155));
#124=EDGE_LOOP('',(#156));
#125=EDGE_LOOP('',(#157));
#126=EDGE_LOOP('',(#158));
#127=EDGE_LOOP('',(#159));
#128=EDGE_LOOP('',(#160));
#129=EDGE_LOOP('',(#161));
#130=ORIENTED_EDGE('',*,*,#176,.T.);
#131=ORIENTED_EDGE('',*,*,#177,.T.);
#132=ORIENTED_EDGE('',*,*,#178,.F.);
#133=ORIENTED_EDGE('',*,*,#179,.F.);
#134=ORIENTED_EDGE('',*,*,#180,.F.);
#135=ORIENTED_EDGE('',*,*,#181,.F.);
#136=ORIENTED_EDGE('',*,*,#182,.T.);
#137=ORIENTED_EDGE('',*,*,#176,.F.);
#138=ORIENTED_EDGE('',*,*,#183,.T.);
#139=ORIENTED_EDGE('',*,*,#184,.T.);
#140=ORIENTED_EDGE('',*,*,#184,.F.);
#141=ORIENTED_EDGE('',*,*,#182,.F.);
#142=ORIENTED_EDGE('',*,*,#185,.F.);
#143=ORIENTED_EDGE('',*,*,#183,.F.);
#144=ORIENTED_EDGE('',*,*,#186,.T.);
#145=ORIENTED_EDGE('',*,*,#177,.F.);
#146=ORIENTED_EDGE('',*,*,#186,.F.);
#147=ORIENTED_EDGE('',*,*,#178,.T.);
#148=ORIENTED_EDGE('',*,*,#187,.F.);
#149=ORIENTED_EDGE('',*,*,#179,.T.);
#150=ORIENTED_EDGE('',*,*,#187,.T.);
#151=ORIENTED_EDGE('',*,*,#181,.T.);
#152=ORIENTED_EDGE('',*,*,#188,.F.);
#153=ORIENTED_EDGE('',*,*,#180,.T.);
#154=ORIENTED_EDGE('',*,*,#188,.T.);
#155=ORIENTED_EDGE('',*,*,#185,.T.);
#156=ORIENTED_EDGE('',*,*,#189,.T.);
#157=ORIENTED_EDGE('',*,*,#190,.T.);
#158=ORIENTED_EDGE('',*,*,#191,.T.);
#159=ORIENTED_EDGE('',*,*,#189,.F.);
#160=ORIENTED_EDGE('',*,*,#190,.F.);
#161=ORIENTED_EDGE('',*,*,#191,.F.);
#162=VERTEX_POINT('',#364);
#163=VERTEX_POINT('',#366);
#164=VERTEX_POINT('',#368);
#165=VERTEX_POINT('',#369);
#166=VERTEX_POINT('',#371);
#167=VERTEX_POINT('',#373);
#168=VERTEX_POINT('',#377);
#169=VERTEX_POINT('',#380);
#170=VERTEX_POINT('',#382);
#171=VERTEX_POINT('',#386);
#172=VERTEX_POINT('',#389);
#173=VERTEX_POINT('',#399);
#174=VERTEX_POINT('',#402);
#175=VERTEX_POINT('',#405);
#176=EDGE_CURVE('',#162,#162,#192,.T.);
#177=EDGE_CURVE('',#163,#163,#193,.T.);
#178=EDGE_CURVE('',#164,#165,#87,.T.);
#179=EDGE_CURVE('',#166,#164,#79,.T.);
#180=EDGE_CURVE('',#167,#166,#88,.T.);
#181=EDGE_CURVE('',#165,#167,#80,.T.);
#182=EDGE_CURVE('',#168,#168,#194,.T.);
#183=EDGE_CURVE('',#169,#169,#195,.T.);
#184=EDGE_CURVE('',#170,#170,#196,.T.);
#185=EDGE_CURVE('',#171,#171,#197,.T.);
#186=EDGE_CURVE('',#172,#172,#198,.T.);
#187=EDGE_CURVE('',#164,#165,#81,.T.);
#188=EDGE_CURVE('',#166,#167,#82,.T.);
#189=EDGE_CURVE('',#173,#173,#199,.T.);
#190=EDGE_CURVE('',#174,#174,#200,.T.);
#191=EDGE_CURVE('',#175,#175,#201,.T.);
#192=CIRCLE('',#247,3.);
#193=CIRCLE('',#248,3.);
#194=CIRCLE('',#252,1.71794919243112);
#195=CIRCLE('',#254,1.45);
#196=CIRCLE('',#255,1.45);
#197=CIRCLE('',#258,1.5);
#198=CIRCLE('',#260,2.6);
#199=CIRCLE('',#267,1.5);
#200=CIRCLE('',#269,1.2);
#201=CIRCLE('',#271,1.5);
#202=CURVE_STYLE('',#206,POSITIVE_LENGTH_MEASURE(0.18),#213);
#203=CURVE_STYLE('',#207,POSITIVE_LENGTH_MEASURE(0.13),#240);
#204=CURVE_STYLE('',#208,POSITIVE_LENGTH_MEASURE(0.18),#239);
#205=CURVE_STYLE('',#209,POSITIVE_LENGTH_MEASURE(0.18),#239);
#206=DRAUGHTING_PRE_DEFINED_CURVE_FONT('continuous');
#207=DRAUGHTING_PRE_DEFINED_CURVE_FONT('continuous');
#208=DRAUGHTING_PRE_DEFINED_CURVE_FONT('continuous');
#209=DRAUGHTING_PRE_DEFINED_CURVE_FONT('continuous');
#210=TRIMMED_CURVE('CUTTING PART LINE',#211,(PARAMETER_VALUE(0.)),(
PARAMETER_VALUE(1.)),.T.,.PARAMETER.);
#211=(
BOUNDED_CURVE()
B_SPLINE_CURVE(3,(#344,#345,#346,#347,#348,#349,#350,#351,#352,#353,#354,
#355,#356,#357,#358,#359),.UNSPECIFIED.,.T.,.F.)
B_SPLINE_CURVE_WITH_KNOTS((1,3,3,3,3,3,3,1),(-0.024971275100144,0.,0.408028325096179,
0.487514362452578,0.911439895014737,0.975028724899856,1.,1.40802832509618),
 .UNSPECIFIED.)
CURVE()
GEOMETRIC_REPRESENTATION_ITEM()
RATIONAL_B_SPLINE_CURVE((1.,1.,1.,1.,1.,1.,1.,1.,1.,1.,1.,1.,1.,0.804737854124365,
0.804737854124365,1.))
REPRESENTATION_ITEM('CUTTING PART LINE')
);
#212=DRAUGHTING_PRE_DEFINED_COLOUR('white');
#213=DRAUGHTING_PRE_DEFINED_COLOUR('blue');
#214=PRESENTATION_LAYER_ASSIGNMENT('1','Layer 1',(#341,#342,#343,#210,#244,
#245,#246,#38,#39));
#215=STYLED_ITEM('',(#224),#341);
#216=STYLED_ITEM('',(#225),#342);
#217=STYLED_ITEM('',(#226),#343);
#218=STYLED_ITEM('',(#227),#210);
#219=STYLED_ITEM('',(#228),#244);
#220=STYLED_ITEM('',(#229),#245);
#221=STYLED_ITEM('',(#230),#246);
#222=STYLED_ITEM('',(#231),#38);
#223=STYLED_ITEM('',(#232),#39);
#224=PRESENTATION_STYLE_ASSIGNMENT((#233));
#225=PRESENTATION_STYLE_ASSIGNMENT((#234));
#226=PRESENTATION_STYLE_ASSIGNMENT((#235));
#227=PRESENTATION_STYLE_ASSIGNMENT((#202));
#228=PRESENTATION_STYLE_ASSIGNMENT((#203));
#229=PRESENTATION_STYLE_ASSIGNMENT((#204));
#230=PRESENTATION_STYLE_ASSIGNMENT((#205));
#231=PRESENTATION_STYLE_ASSIGNMENT((#28));
#232=PRESENTATION_STYLE_ASSIGNMENT((#29));
#233=POINT_STYLE('',#236,POSITIVE_LENGTH_MEASURE(3.),#239);
#234=POINT_STYLE('',#237,POSITIVE_LENGTH_MEASURE(3.),#212);
#235=POINT_STYLE('',#238,POSITIVE_LENGTH_MEASURE(3.),#239);
#236=PRE_DEFINED_POINT_MARKER_SYMBOL('plus');
#237=PRE_DEFINED_POINT_MARKER_SYMBOL('plus');
#238=PRE_DEFINED_POINT_MARKER_SYMBOL('plus');
#239=COLOUR_RGB('Medium Maroon',0.6,0.4,0.4);
#240=COLOUR_RGB('Silver Gray',0.6,0.6,0.6);
#241=COLOUR_RGB('TLS_NOCUT',0.498023956664378,0.498023956664378,0.498023956664378);
#242=COLOUR_RGB('TLS_CUT',0.8,0.8,0.8);
#243=AXIS2_PLACEMENT_3D('',#340,#274,#275);
#244=AXIS2_PLACEMENT_3D('PCS',#360,#276,#277);
#245=AXIS2_PLACEMENT_3D('MCS',#361,#278,#279);
#246=AXIS2_PLACEMENT_3D('CIP',#362,#280,#281);
#247=AXIS2_PLACEMENT_3D('',#363,#282,#283);
#248=AXIS2_PLACEMENT_3D('',#365,#284,#285);
#249=AXIS2_PLACEMENT_3D('',#367,#286,#287);
#250=AXIS2_PLACEMENT_3D('',#372,#289,#290);
#251=AXIS2_PLACEMENT_3D('',#375,#292,#293);
#252=AXIS2_PLACEMENT_3D('',#376,#294,#295);
#253=AXIS2_PLACEMENT_3D('',#378,#296,#297);
#254=AXIS2_PLACEMENT_3D('',#379,#298,#299);
#255=AXIS2_PLACEMENT_3D('',#381,#300,#301);
#256=AXIS2_PLACEMENT_3D('',#383,#302,#303);
#257=AXIS2_PLACEMENT_3D('',#384,#304,#305);
#258=AXIS2_PLACEMENT_3D('',#385,#306,#307);
#259=AXIS2_PLACEMENT_3D('',#387,#308,#309);
#260=AXIS2_PLACEMENT_3D('',#388,#310,#311);
#261=AXIS2_PLACEMENT_3D('',#390,#312,#313);
#262=AXIS2_PLACEMENT_3D('',#391,#314,#315);
#263=AXIS2_PLACEMENT_3D('',#393,#317,#318);
#264=AXIS2_PLACEMENT_3D('',#395,#320,#321);
#265=AXIS2_PLACEMENT_3D('',#396,#322,#323);
#266=AXIS2_PLACEMENT_3D('',#397,#324,#325);
#267=AXIS2_PLACEMENT_3D('',#398,#326,#327);
#268=AXIS2_PLACEMENT_3D('',#400,#328,#329);
#269=AXIS2_PLACEMENT_3D('',#401,#330,#331);
#270=AXIS2_PLACEMENT_3D('',#403,#332,#333);
#271=AXIS2_PLACEMENT_3D('',#404,#334,#335);
#272=AXIS2_PLACEMENT_3D('',#406,#336,#337);
#273=AXIS2_PLACEMENT_3D('',#407,#338,#339);
#274=DIRECTION('',(0.,0.,1.));
#275=DIRECTION('',(1.,0.,0.));
#276=DIRECTION('',(0.,0.,1.));
#277=DIRECTION('',(1.,0.,0.));
#278=DIRECTION('',(0.,0.,1.));
#279=DIRECTION('',(1.,0.,0.));
#280=DIRECTION('',(0.,0.,1.));
#281=DIRECTION('',(1.,0.,0.));
#282=DIRECTION('',(0.,0.,1.));
#283=DIRECTION('',(1.,0.,0.));
#284=DIRECTION('',(0.,0.,-1.));
#285=DIRECTION('',(-1.,0.,0.));
#286=DIRECTION('',(0.,0.707106781186546,-0.707106781186549));
#287=DIRECTION('',(0.,0.707106781186549,0.707106781186546));
#288=DIRECTION('',(0.,0.,1.));
#289=DIRECTION('',(0.,0.707106781186548,0.707106781186548));
#290=DIRECTION('',(0.,-0.707106781186548,0.707106781186548));
#291=DIRECTION('',(0.,0.,-1.));
#292=DIRECTION('',(0.,0.,1.));
#293=DIRECTION('',(1.,0.,0.));
#294=DIRECTION('',(0.,0.,1.));
#295=DIRECTION('',(1.,0.,0.));
#296=DIRECTION('',(0.,0.,1.));
#297=DIRECTION('',(1.,0.,-8.39188575281007E-17));
#298=DIRECTION('',(0.,0.,1.));
#299=DIRECTION('',(-1.,0.,0.));
#300=DIRECTION('',(0.,0.,-1.));
#301=DIRECTION('',(1.,0.,0.));
#302=DIRECTION('',(0.,0.,1.));
#303=DIRECTION('',(1.,0.,0.));
#304=DIRECTION('',(0.,0.,1.));
#305=DIRECTION('',(1.,0.,0.));
#306=DIRECTION('',(0.,0.,-1.));
#307=DIRECTION('',(1.,0.,0.));
#308=DIRECTION('',(0.,0.,-1.));
#309=DIRECTION('',(-1.,0.,0.));
#310=DIRECTION('',(0.,0.,1.));
#311=DIRECTION('',(-1.,0.,0.));
#312=DIRECTION('',(0.,0.,-1.));
#313=DIRECTION('',(-1.,0.,0.));
#314=DIRECTION('',(0.,0.,-1.));
#315=DIRECTION('',(-1.,0.,0.));
#316=DIRECTION('',(1.,0.,0.));
#317=DIRECTION('',(0.,0.707106781186546,-0.707106781186549));
#318=DIRECTION('',(0.,-0.707106781186549,-0.707106781186546));
#319=DIRECTION('',(1.,0.,0.));
#320=DIRECTION('',(0.,1.,0.));
#321=DIRECTION('',(0.,0.,-1.));
#322=DIRECTION('',(0.,0.707106781186548,0.707106781186548));
#323=DIRECTION('',(0.,0.707106781186548,-0.707106781186548));
#324=DIRECTION('',(0.,0.,-1.));
#325=DIRECTION('',(-1.,0.,0.));
#326=DIRECTION('',(0.,0.,1.));
#327=DIRECTION('',(1.,0.,0.));
#328=DIRECTION('',(0.,0.,1.));
#329=DIRECTION('',(1.,0.,0.));
#330=DIRECTION('',(0.,0.,-1.));
#331=DIRECTION('',(1.,0.,0.));
#332=DIRECTION('',(0.,0.,1.));
#333=DIRECTION('',(1.,0.,0.));
#334=DIRECTION('',(0.,0.,1.));
#335=DIRECTION('',(1.,0.,0.));
#336=DIRECTION('',(0.,0.,1.));
#337=DIRECTION('',(1.,0.,0.));
#338=DIRECTION('',(0.,0.,1.));
#339=DIRECTION('',(1.,0.,0.));
#340=CARTESIAN_POINT('',(0.,0.,0.));
#341=CARTESIAN_POINT('',(0.,0.,-36.));
#342=CARTESIAN_POINT('CRP',(-1.5,0.,-57.));
#343=CARTESIAN_POINT('CIP_DCSYS',(0.,0.,-57.));
#344=CARTESIAN_POINT('',(-1.5,0.,-56.7));
#345=CARTESIAN_POINT('',(-1.5,0.,-54.1333333333333));
#346=CARTESIAN_POINT('',(-1.5,0.,-51.5666666666667));
#347=CARTESIAN_POINT('',(-1.5,0.,-49.));
#348=CARTESIAN_POINT('',(-1.,0.,-49.));
#349=CARTESIAN_POINT('',(-0.5,0.,-49.));
#350=CARTESIAN_POINT('',(0.,0.,-49.));
#351=CARTESIAN_POINT('',(0.,0.,-51.6666666666667));
#352=CARTESIAN_POINT('',(0.,0.,-54.3333333333333));
#353=CARTESIAN_POINT('',(0.,0.,-57.));
#354=CARTESIAN_POINT('',(-0.4,0.,-57.));
#355=CARTESIAN_POINT('',(-0.800000000000001,0.,-57.));
#356=CARTESIAN_POINT('',(-1.2,0.,-57.));
#357=CARTESIAN_POINT('',(-1.37573593128807,0.,-57.));
#358=CARTESIAN_POINT('',(-1.5,0.,-56.8757359312881));
#359=CARTESIAN_POINT('',(-1.5,0.,-56.7));
#360=CARTESIAN_POINT('',(0.,0.,0.));
#361=CARTESIAN_POINT('',(0.,0.,-36.));
#362=CARTESIAN_POINT('',(0.,0.,-57.));
#363=CARTESIAN_POINT('',(0.,0.,-43.7747807077277));
#364=CARTESIAN_POINT('',(3.,0.,-43.7747807077277));
#365=CARTESIAN_POINT('',(0.,0.,-0.400000000000001));
#366=CARTESIAN_POINT('',(-3.,0.,-0.400000000000001));
#367=CARTESIAN_POINT('',(0.,0.,-18.));
#368=CARTESIAN_POINT('',(-2.14242852856286,2.09999999999999,-15.9));
#369=CARTESIAN_POINT('',(2.14242852856286,2.09999999999999,-15.9));
#370=CARTESIAN_POINT('',(-2.14242852856286,2.09999999999999,20.9080749503476));
#371=CARTESIAN_POINT('',(-2.14242852856286,2.09999999999999,-20.1));
#372=CARTESIAN_POINT('',(0.,0.,-18.));
#373=CARTESIAN_POINT('',(2.14242852856287,2.09999999999999,-20.1));
#374=CARTESIAN_POINT('',(2.14242852856286,2.09999999999999,20.9080749503476));
#375=CARTESIAN_POINT('',(0.,0.,20.9080749503476));
#376=CARTESIAN_POINT('',(0.,0.,-45.9953578443217));
#377=CARTESIAN_POINT('',(1.71794919243112,0.,-45.9953578443217));
#378=CARTESIAN_POINT('',(0.,0.,-46.4594594594595));
#379=CARTESIAN_POINT('',(0.,0.,-48.5555902791342));
#380=CARTESIAN_POINT('',(-1.45,0.,-48.5555902791342));
#381=CARTESIAN_POINT('',(0.,0.,-46.9953578443217));
#382=CARTESIAN_POINT('',(1.45,0.,-46.9953578443217));
#383=CARTESIAN_POINT('',(0.,0.,0.));
#384=CARTESIAN_POINT('',(0.,0.,-46.9953578443217));
#385=CARTESIAN_POINT('',(0.,0.,-49.));
#386=CARTESIAN_POINT('',(1.5,0.,-49.));
#387=CARTESIAN_POINT('',(0.,0.,-48.5555902791342));
#388=CARTESIAN_POINT('',(0.,0.,0.));
#389=CARTESIAN_POINT('',(-2.6,0.,0.));
#390=CARTESIAN_POINT('',(0.,3.00000000000001,0.));
#391=CARTESIAN_POINT('',(0.,0.,0.));
#392=CARTESIAN_POINT('',(10.,2.09999999999999,-15.9));
#393=CARTESIAN_POINT('',(10.,3.00000000000001,-15.));
#394=CARTESIAN_POINT('',(10.,2.09999999999999,-20.1));
#395=CARTESIAN_POINT('',(10.,2.09999999999999,-15.9));
#396=CARTESIAN_POINT('',(10.,3.,-21.));
#397=CARTESIAN_POINT('',(0.,0.,-49.));
#398=CARTESIAN_POINT('',(0.,0.,-49.));
#399=CARTESIAN_POINT('',(1.5,0.,-49.));
#400=CARTESIAN_POINT('',(0.,0.,-49.));
#401=CARTESIAN_POINT('',(0.,0.,-57.));
#402=CARTESIAN_POINT('',(1.2,0.,-57.));
#403=CARTESIAN_POINT('',(0.,0.,-57.));
#404=CARTESIAN_POINT('',(0.,0.,-56.7));
#405=CARTESIAN_POINT('',(1.5,0.,-56.7));
#406=CARTESIAN_POINT('',(0.,0.,0.));
#407=CARTESIAN_POINT('',(0.,0.,-56.7));
#408=MECHANICAL_DESIGN_GEOMETRIC_PRESENTATION_REPRESENTATION('',(#215,#216,
#217,#218,#219,#220,#221,#222,#223),#409);
#409=(
GEOMETRIC_REPRESENTATION_CONTEXT(3)
GLOBAL_UNCERTAINTY_ASSIGNED_CONTEXT((#410))
GLOBAL_UNIT_ASSIGNED_CONTEXT((#416,#412,#411))
REPRESENTATION_CONTEXT('TOOL','TOP_LEVEL_ASSEMBLY_PART')
);
#410=UNCERTAINTY_MEASURE_WITH_UNIT(LENGTH_MEASURE(2.E-5),#416,
'DISTANCE_ACCURACY_VALUE','Maximum Tolerance applied to model');
#411=(
NAMED_UNIT(*)
SI_UNIT($,.STERADIAN.)
SOLID_ANGLE_UNIT()
);
#412=(
CONVERSION_BASED_UNIT('DEGREE',#414)
NAMED_UNIT(#413)
PLANE_ANGLE_UNIT()
);
#413=DIMENSIONAL_EXPONENTS(0.,0.,0.,0.,0.,0.,0.);
#414=PLANE_ANGLE_MEASURE_WITH_UNIT(PLANE_ANGLE_MEASURE(0.0174532925),#415);
#415=(
NAMED_UNIT(*)
PLANE_ANGLE_UNIT()
SI_UNIT($,.RADIAN.)
);
#416=(
LENGTH_UNIT()
NAMED_UNIT(*)
SI_UNIT(.MILLI.,.METRE.)
);
ENDSEC;
END-ISO-10303-21;
