ISO-10303-21;
HEADER;
/* Generated by software containing ST-Developer
 * from STEP Tools, Inc. (www.steptools.com) 
 */
/* OPTION: using custom schema-name function */

FILE_DESCRIPTION(
/* description */ (''),
/* implementation_level */ '2;1');

FILE_NAME(
/* name */ '1589354223995.stp',
/* time_stamp */ '2020-05-13T09:17:11+02:00',
/* author */ (''),
/* organization */ ('SMS'),
/* preprocessor_version */ 'ST-DEVELOPER v16.7',
/* originating_system */ 'SIEMENS PLM Software NX 12.0',
/* authorisation */ '');

FILE_SCHEMA (('AUTOMOTIVE_DESIGN { 1 0 10303 214 3 1 1 1 }'));
ENDSEC;

DATA;
#10=CONSTRUCTIVE_GEOMETRY_REPRESENTATION_RELATIONSHIP(
'supplemental geometry','',#26,#11);
#11=CONSTRUCTIVE_GEOMETRY_REPRESENTATION('supplemental geometry',(#203,
#204,#205),#341);
#12=GEOMETRICALLY_BOUNDED_WIREFRAME_SHAPE_REPRESENTATION(
'202939982mod000_00-None',(#27),#341);
#13=SHAPE_REPRESENTATION_RELATIONSHIP('None',
'relationship between 202939982mod000_00-None and 202939982mod000_00-N
one',#26,#15);
#14=SHAPE_REPRESENTATION_RELATIONSHIP('None',
'relationship between 202939982mod000_00-None and 202939982mod000_00-N
one',#26,#12);
#15=ADVANCED_BREP_SHAPE_REPRESENTATION('202939982mod000_00-None',(#41,#42),
#341);
#16=SHAPE_DEFINITION_REPRESENTATION(#17,#26);
#17=PRODUCT_DEFINITION_SHAPE('','',#18);
#18=PRODUCT_DEFINITION(' ','',#20,#19);
#19=PRODUCT_DEFINITION_CONTEXT('part definition',#25,'design');
#20=PRODUCT_DEFINITION_FORMATION_WITH_SPECIFIED_SOURCE(' ',' ',#22,
 .NOT_KNOWN.);
#21=PRODUCT_RELATED_PRODUCT_CATEGORY('part','',(#22));
#22=PRODUCT('202939982mod000_00','202939982mod000_00',' ',(#23));
#23=PRODUCT_CONTEXT(' ',#25,'mechanical');
#24=APPLICATION_PROTOCOL_DEFINITION('international standard',
'automotive_design',2010,#25);
#25=APPLICATION_CONTEXT(
'core data for automotive mechanical design processes');
#26=SHAPE_REPRESENTATION('202939982mod000_00-None',(#202),#341);
#27=GEOMETRIC_CURVE_SET('None',(#281,#282,#283,#284,#167));
#28=TOROIDAL_SURFACE('',#220,3.04000000000001,0.400000000000007);
#29=TOROIDAL_SURFACE('',#224,3.60000000000001,0.399999999999993);
#30=VERTEX_LOOP('',#133);
#31=SURFACE_STYLE_USAGE(.BOTH.,#33);
#32=SURFACE_STYLE_USAGE(.BOTH.,#34);
#33=SURFACE_SIDE_STYLE('',(#35));
#34=SURFACE_SIDE_STYLE('',(#36));
#35=SURFACE_STYLE_FILL_AREA(#37);
#36=SURFACE_STYLE_FILL_AREA(#38);
#37=FILL_AREA_STYLE('',(#39));
#38=FILL_AREA_STYLE('',(#40));
#39=FILL_AREA_STYLE_COLOUR('',#200);
#40=FILL_AREA_STYLE_COLOUR('',#201);
#41=MANIFOLD_SOLID_BREP('NOCUT',#43);
#42=MANIFOLD_SOLID_BREP('CUT',#44);
#43=CLOSED_SHELL('',(#55,#56,#57,#58,#59,#60));
#44=CLOSED_SHELL('',(#61,#62,#63,#64,#65,#66));
#45=CONICAL_SURFACE('',#211,3.4,44.9999999999998);
#46=CONICAL_SURFACE('',#216,3.88,20.0000000000002);
#47=CONICAL_SURFACE('',#218,2.97054072893323,79.9999999999997);
#48=CONICAL_SURFACE('',#222,3.66945927106678,80.0000000000007);
#49=PLANE('',#210);
#50=PLANE('',#213);
#51=PLANE('',#227);
#52=FACE_OUTER_BOUND('',#90,.T.);
#53=FACE_OUTER_BOUND('',#93,.T.);
#54=FACE_OUTER_BOUND('',#107,.T.);
#55=ADVANCED_FACE('',(#70,#71),#67,.T.);
#56=ADVANCED_FACE('',(#52),#49,.T.);
#57=ADVANCED_FACE('',(#72,#73),#45,.T.);
#58=ADVANCED_FACE('',(#53),#50,.F.);
#59=ADVANCED_FACE('',(#74,#75),#68,.T.);
#60=ADVANCED_FACE('',(#76,#77),#46,.T.);
#61=ADVANCED_FACE('',(#78,#79),#47,.F.);
#62=ADVANCED_FACE('',(#80,#81),#28,.T.);
#63=ADVANCED_FACE('',(#82,#83),#48,.T.);
#64=ADVANCED_FACE('',(#84,#85),#29,.T.);
#65=ADVANCED_FACE('',(#86,#87),#69,.T.);
#66=ADVANCED_FACE('',(#54),#51,.T.);
#67=CYLINDRICAL_SURFACE('',#208,4.);
#68=CYLINDRICAL_SURFACE('',#215,3.88);
#69=CYLINDRICAL_SURFACE('',#226,4.00000000000001);
#70=FACE_BOUND('',#88,.T.);
#71=FACE_BOUND('',#89,.T.);
#72=FACE_BOUND('',#91,.T.);
#73=FACE_BOUND('',#92,.T.);
#74=FACE_BOUND('',#94,.T.);
#75=FACE_BOUND('',#95,.T.);
#76=FACE_BOUND('',#96,.T.);
#77=FACE_BOUND('',#97,.T.);
#78=FACE_BOUND('',#30,.T.);
#79=FACE_BOUND('',#98,.T.);
#80=FACE_BOUND('',#99,.T.);
#81=FACE_BOUND('',#100,.T.);
#82=FACE_BOUND('',#101,.T.);
#83=FACE_BOUND('',#102,.T.);
#84=FACE_BOUND('',#103,.T.);
#85=FACE_BOUND('',#104,.T.);
#86=FACE_BOUND('',#105,.T.);
#87=FACE_BOUND('',#106,.T.);
#88=EDGE_LOOP('',(#108));
#89=EDGE_LOOP('',(#109));
#90=EDGE_LOOP('',(#110));
#91=EDGE_LOOP('',(#111));
#92=EDGE_LOOP('',(#112));
#93=EDGE_LOOP('',(#113));
#94=EDGE_LOOP('',(#114));
#95=EDGE_LOOP('',(#115));
#96=EDGE_LOOP('',(#116));
#97=EDGE_LOOP('',(#117));
#98=EDGE_LOOP('',(#118));
#99=EDGE_LOOP('',(#119));
#100=EDGE_LOOP('',(#120));
#101=EDGE_LOOP('',(#121));
#102=EDGE_LOOP('',(#122));
#103=EDGE_LOOP('',(#123));
#104=EDGE_LOOP('',(#124));
#105=EDGE_LOOP('',(#125));
#106=EDGE_LOOP('',(#126));
#107=EDGE_LOOP('',(#127));
#108=ORIENTED_EDGE('',*,*,#139,.T.);
#109=ORIENTED_EDGE('',*,*,#140,.T.);
#110=ORIENTED_EDGE('',*,*,#141,.T.);
#111=ORIENTED_EDGE('',*,*,#140,.F.);
#112=ORIENTED_EDGE('',*,*,#141,.F.);
#113=ORIENTED_EDGE('',*,*,#142,.T.);
#114=ORIENTED_EDGE('',*,*,#142,.F.);
#115=ORIENTED_EDGE('',*,*,#143,.F.);
#116=ORIENTED_EDGE('',*,*,#139,.F.);
#117=ORIENTED_EDGE('',*,*,#143,.T.);
#118=ORIENTED_EDGE('',*,*,#144,.F.);
#119=ORIENTED_EDGE('',*,*,#144,.T.);
#120=ORIENTED_EDGE('',*,*,#145,.F.);
#121=ORIENTED_EDGE('',*,*,#145,.T.);
#122=ORIENTED_EDGE('',*,*,#146,.F.);
#123=ORIENTED_EDGE('',*,*,#146,.T.);
#124=ORIENTED_EDGE('',*,*,#147,.F.);
#125=ORIENTED_EDGE('',*,*,#147,.T.);
#126=ORIENTED_EDGE('',*,*,#148,.F.);
#127=ORIENTED_EDGE('',*,*,#148,.T.);
#128=VERTEX_POINT('',#308);
#129=VERTEX_POINT('',#310);
#130=VERTEX_POINT('',#313);
#131=VERTEX_POINT('',#317);
#132=VERTEX_POINT('',#320);
#133=VERTEX_POINT('',#323);
#134=VERTEX_POINT('',#325);
#135=VERTEX_POINT('',#328);
#136=VERTEX_POINT('',#331);
#137=VERTEX_POINT('',#334);
#138=VERTEX_POINT('',#337);
#139=EDGE_CURVE('',#128,#128,#149,.T.);
#140=EDGE_CURVE('',#129,#129,#150,.T.);
#141=EDGE_CURVE('',#130,#130,#151,.T.);
#142=EDGE_CURVE('',#131,#131,#152,.T.);
#143=EDGE_CURVE('',#132,#132,#153,.T.);
#144=EDGE_CURVE('',#134,#134,#154,.T.);
#145=EDGE_CURVE('',#135,#135,#155,.T.);
#146=EDGE_CURVE('',#136,#136,#156,.T.);
#147=EDGE_CURVE('',#137,#137,#157,.T.);
#148=EDGE_CURVE('',#138,#138,#158,.T.);
#149=CIRCLE('',#206,4.);
#150=CIRCLE('',#207,4.);
#151=CIRCLE('',#209,3.4);
#152=CIRCLE('',#212,3.88);
#153=CIRCLE('',#214,3.88);
#154=CIRCLE('',#217,2.97054072893323);
#155=CIRCLE('',#219,3.10945927106678);
#156=CIRCLE('',#221,3.66945927106678);
#157=CIRCLE('',#223,4.00000000000001);
#158=CIRCLE('',#225,4.00000000000001);
#159=CURVE_STYLE('',#163,POSITIVE_LENGTH_MEASURE(0.18),#169);
#160=CURVE_STYLE('',#164,POSITIVE_LENGTH_MEASURE(0.18),#199);
#161=CURVE_STYLE('',#165,POSITIVE_LENGTH_MEASURE(0.18),#199);
#162=CURVE_STYLE('',#166,POSITIVE_LENGTH_MEASURE(0.18),#199);
#163=DRAUGHTING_PRE_DEFINED_CURVE_FONT('continuous');
#164=DRAUGHTING_PRE_DEFINED_CURVE_FONT('continuous');
#165=DRAUGHTING_PRE_DEFINED_CURVE_FONT('continuous');
#166=DRAUGHTING_PRE_DEFINED_CURVE_FONT('continuous');
#167=TRIMMED_CURVE('CUTTING PART LINE',#168,(PARAMETER_VALUE(0.)),(
PARAMETER_VALUE(1.)),.T.,.PARAMETER.);
#168=(
BOUNDED_CURVE()
B_SPLINE_CURVE(3,(#285,#286,#287,#288,#289,#290,#291,#292,#293,#294,#295,
#296,#297,#298,#299,#300,#301,#302,#303),.UNSPECIFIED.,.F.,.F.)
B_SPLINE_CURVE_WITH_KNOTS((4,3,3,3,3,3,4),(0.,0.202179560338703,0.78350932571981,
0.81173891778304,0.840480708612827,0.847538106626108,1.),.UNSPECIFIED.)
CURVE()
GEOMETRIC_REPRESENTATION_ITEM()
RATIONAL_B_SPLINE_CURVE((1.,1.,1.,1.,1.,1.,1.,0.844029628745986,0.844029628745986,
1.,1.,1.,1.,0.989871835341472,0.989871835341472,1.,1.,1.,1.))
REPRESENTATION_ITEM('CUTTING PART LINE')
);
#169=DRAUGHTING_PRE_DEFINED_COLOUR('blue');
#170=PRESENTATION_LAYER_ASSIGNMENT('1','Layer 1',(#281,#282,#283,#284,#167,
#203,#204,#205,#41,#42));
#171=STYLED_ITEM('',(#181),#281);
#172=STYLED_ITEM('',(#182),#282);
#173=STYLED_ITEM('',(#183),#283);
#174=STYLED_ITEM('',(#184),#284);
#175=STYLED_ITEM('',(#185),#167);
#176=STYLED_ITEM('',(#186),#203);
#177=STYLED_ITEM('',(#187),#204);
#178=STYLED_ITEM('',(#188),#205);
#179=STYLED_ITEM('',(#189),#41);
#180=STYLED_ITEM('',(#190),#42);
#181=PRESENTATION_STYLE_ASSIGNMENT((#191));
#182=PRESENTATION_STYLE_ASSIGNMENT((#192));
#183=PRESENTATION_STYLE_ASSIGNMENT((#193));
#184=PRESENTATION_STYLE_ASSIGNMENT((#194));
#185=PRESENTATION_STYLE_ASSIGNMENT((#159));
#186=PRESENTATION_STYLE_ASSIGNMENT((#160));
#187=PRESENTATION_STYLE_ASSIGNMENT((#161));
#188=PRESENTATION_STYLE_ASSIGNMENT((#162));
#189=PRESENTATION_STYLE_ASSIGNMENT((#31));
#190=PRESENTATION_STYLE_ASSIGNMENT((#32));
#191=POINT_STYLE('',#195,POSITIVE_LENGTH_MEASURE(3.),#199);
#192=POINT_STYLE('',#196,POSITIVE_LENGTH_MEASURE(3.),#199);
#193=POINT_STYLE('',#197,POSITIVE_LENGTH_MEASURE(3.),#199);
#194=POINT_STYLE('',#198,POSITIVE_LENGTH_MEASURE(3.),#169);
#195=PRE_DEFINED_POINT_MARKER_SYMBOL('plus');
#196=PRE_DEFINED_POINT_MARKER_SYMBOL('plus');
#197=PRE_DEFINED_POINT_MARKER_SYMBOL('plus');
#198=PRE_DEFINED_POINT_MARKER_SYMBOL('plus');
#199=COLOUR_RGB('Strong Stone',0.576470588235294,0.54508278019379,0.392156862745098);
#200=COLOUR_RGB('Medium Gray',0.501960784313725,0.501960784313725,0.501960784313725);
#201=COLOUR_RGB('Light Gray',0.8,0.8,0.8);
#202=AXIS2_PLACEMENT_3D('',#280,#228,#229);
#203=AXIS2_PLACEMENT_3D('PCS',#304,#230,#231);
#204=AXIS2_PLACEMENT_3D('CIP',#305,#232,#233);
#205=AXIS2_PLACEMENT_3D('MCS',#306,#234,#235);
#206=AXIS2_PLACEMENT_3D('',#307,#236,#237);
#207=AXIS2_PLACEMENT_3D('',#309,#238,#239);
#208=AXIS2_PLACEMENT_3D('',#311,#240,#241);
#209=AXIS2_PLACEMENT_3D('',#312,#242,#243);
#210=AXIS2_PLACEMENT_3D('',#314,#244,#245);
#211=AXIS2_PLACEMENT_3D('',#315,#246,#247);
#212=AXIS2_PLACEMENT_3D('',#316,#248,#249);
#213=AXIS2_PLACEMENT_3D('',#318,#250,#251);
#214=AXIS2_PLACEMENT_3D('',#319,#252,#253);
#215=AXIS2_PLACEMENT_3D('',#321,#254,#255);
#216=AXIS2_PLACEMENT_3D('',#322,#256,#257);
#217=AXIS2_PLACEMENT_3D('',#324,#258,#259);
#218=AXIS2_PLACEMENT_3D('',#326,#260,#261);
#219=AXIS2_PLACEMENT_3D('',#327,#262,#263);
#220=AXIS2_PLACEMENT_3D('',#329,#264,#265);
#221=AXIS2_PLACEMENT_3D('',#330,#266,#267);
#222=AXIS2_PLACEMENT_3D('',#332,#268,#269);
#223=AXIS2_PLACEMENT_3D('',#333,#270,#271);
#224=AXIS2_PLACEMENT_3D('',#335,#272,#273);
#225=AXIS2_PLACEMENT_3D('',#336,#274,#275);
#226=AXIS2_PLACEMENT_3D('',#338,#276,#277);
#227=AXIS2_PLACEMENT_3D('',#339,#278,#279);
#228=DIRECTION('',(0.,0.,1.));
#229=DIRECTION('',(1.,0.,0.));
#230=DIRECTION('',(0.,0.,1.));
#231=DIRECTION('',(1.,0.,0.));
#232=DIRECTION('',(0.,0.,1.));
#233=DIRECTION('',(1.,0.,0.));
#234=DIRECTION('',(0.,0.,1.));
#235=DIRECTION('',(1.,0.,0.));
#236=DIRECTION('',(0.,0.,1.));
#237=DIRECTION('',(1.,0.,0.));
#238=DIRECTION('',(0.,0.,-1.));
#239=DIRECTION('',(1.,0.,0.));
#240=DIRECTION('',(0.,0.,1.));
#241=DIRECTION('',(1.,0.,0.));
#242=DIRECTION('',(0.,0.,1.));
#243=DIRECTION('',(1.,0.,0.));
#244=DIRECTION('',(0.,0.,1.));
#245=DIRECTION('',(1.,0.,0.));
#246=DIRECTION('',(0.,0.,-1.));
#247=DIRECTION('',(-1.,0.,0.));
#248=DIRECTION('',(0.,0.,-1.));
#249=DIRECTION('',(1.,0.,0.));
#250=DIRECTION('',(0.,0.,1.));
#251=DIRECTION('',(1.,0.,0.));
#252=DIRECTION('',(0.,0.,1.));
#253=DIRECTION('',(1.,0.,0.));
#254=DIRECTION('',(0.,0.,1.));
#255=DIRECTION('',(1.,0.,0.));
#256=DIRECTION('',(0.,0.,1.));
#257=DIRECTION('',(1.,0.,5.65901004609855E-17));
#258=DIRECTION('',(0.,0.,1.));
#259=DIRECTION('',(1.,0.,0.));
#260=DIRECTION('',(0.,0.,-1.));
#261=DIRECTION('',(-1.,0.,-9.78298949464919E-18));
#262=DIRECTION('',(0.,0.,1.));
#263=DIRECTION('',(1.,0.,0.));
#264=DIRECTION('',(0.,0.,1.));
#265=DIRECTION('',(1.,0.,0.));
#266=DIRECTION('',(0.,0.,1.));
#267=DIRECTION('',(1.,0.,0.));
#268=DIRECTION('',(0.,0.,1.));
#269=DIRECTION('',(1.,0.,-4.89089231812078E-18));
#270=DIRECTION('',(0.,0.,1.));
#271=DIRECTION('',(1.,0.,0.));
#272=DIRECTION('',(0.,0.,1.));
#273=DIRECTION('',(1.,0.,0.));
#274=DIRECTION('',(0.,0.,1.));
#275=DIRECTION('',(1.,0.,0.));
#276=DIRECTION('',(0.,0.,1.));
#277=DIRECTION('',(1.,0.,0.));
#278=DIRECTION('',(0.,0.,1.));
#279=DIRECTION('',(1.,0.,0.));
#280=CARTESIAN_POINT('',(0.,0.,0.));
#281=CARTESIAN_POINT('PCS',(0.,0.,0.));
#282=CARTESIAN_POINT('CIP',(0.,0.,-68.4));
#283=CARTESIAN_POINT('MCS',(0.,0.,-36.));
#284=CARTESIAN_POINT('CRP',(4.,0.,-68.4));
#285=CARTESIAN_POINT('',(0.,0.,-56.4));
#286=CARTESIAN_POINT('',(1.33333333333334,0.,-56.4));
#287=CARTESIAN_POINT('',(2.66666666666667,0.,-56.4));
#288=CARTESIAN_POINT('',(4.00000000000001,0.,-56.4));
#289=CARTESIAN_POINT('',(4.00000000000001,0.,-60.2337522969344));
#290=CARTESIAN_POINT('',(4.00000000000001,0.,-64.0675045938688));
#291=CARTESIAN_POINT('',(4.,0.,-67.9012568908033));
#292=CARTESIAN_POINT('',(4.,0.,-68.1043422131804));
#293=CARTESIAN_POINT('',(3.86945927106677,0.,-68.2599145958664));
#294=CARTESIAN_POINT('',(3.66945927106678,0.,-68.2951799920081));
#295=CARTESIAN_POINT('',(3.48279260440011,0.,-68.3280943617404));
#296=CARTESIAN_POINT('',(3.29612593773345,0.,-68.3610087314726));
#297=CARTESIAN_POINT('',(3.10945927106678,0.,-68.3939231012049));
#298=CARTESIAN_POINT('',(3.06338998800549,0.,-68.4020463587905));
#299=CARTESIAN_POINT('',(3.01661001199454,0.,-68.4020463587905));
#300=CARTESIAN_POINT('',(2.97054072893323,0.,-68.3939231012049));
#301=CARTESIAN_POINT('',(1.98036048595551,0.,-68.2193276086034));
#302=CARTESIAN_POINT('',(0.990180242977745,0.,-68.044732116002));
#303=CARTESIAN_POINT('',(0.,0.,-67.8701366234006));
#304=CARTESIAN_POINT('',(0.,0.,0.));
#305=CARTESIAN_POINT('',(0.,0.,-68.4));
#306=CARTESIAN_POINT('',(0.,0.,-36.));
#307=CARTESIAN_POINT('',(0.,0.,-36.0703027096655));
#308=CARTESIAN_POINT('',(4.,0.,-36.0703027096655));
#309=CARTESIAN_POINT('',(0.,0.,-0.600000000000003));
#310=CARTESIAN_POINT('',(4.,0.,-0.600000000000003));
#311=CARTESIAN_POINT('',(0.,0.,-40.04));
#312=CARTESIAN_POINT('',(0.,0.,0.));
#313=CARTESIAN_POINT('',(3.4,0.,0.));
#314=CARTESIAN_POINT('',(0.,0.,0.));
#315=CARTESIAN_POINT('',(0.,0.,0.));
#316=CARTESIAN_POINT('',(0.,0.,-56.4));
#317=CARTESIAN_POINT('',(3.88,0.,-56.4));
#318=CARTESIAN_POINT('',(0.,0.,-56.4));
#319=CARTESIAN_POINT('',(0.,0.,-36.4));
#320=CARTESIAN_POINT('',(3.88,0.,-36.4));
#321=CARTESIAN_POINT('',(0.,0.,-58.4));
#322=CARTESIAN_POINT('',(0.,0.,-36.4));
#323=CARTESIAN_POINT('',(0.,0.,-67.8701366234006));
#324=CARTESIAN_POINT('',(0.,0.,-68.3939231012049));
#325=CARTESIAN_POINT('',(2.97054072893323,0.,-68.3939231012049));
#326=CARTESIAN_POINT('',(0.,0.,-68.3939231012049));
#327=CARTESIAN_POINT('',(0.,0.,-68.3939231012049));
#328=CARTESIAN_POINT('',(3.10945927106678,0.,-68.3939231012049));
#329=CARTESIAN_POINT('',(0.,0.,-68.));
#330=CARTESIAN_POINT('',(0.,0.,-68.2951799920082));
#331=CARTESIAN_POINT('',(3.66945927106678,0.,-68.2951799920082));
#332=CARTESIAN_POINT('',(0.,0.,-68.2951799920082));
#333=CARTESIAN_POINT('',(0.,0.,-67.9012568908033));
#334=CARTESIAN_POINT('',(4.00000000000001,0.,-67.9012568908033));
#335=CARTESIAN_POINT('',(0.,0.,-67.9012568908033));
#336=CARTESIAN_POINT('',(0.,0.,-56.4));
#337=CARTESIAN_POINT('',(4.00000000000001,0.,-56.4));
#338=CARTESIAN_POINT('',(0.,0.,-56.4));
#339=CARTESIAN_POINT('',(0.,0.,-56.4));
#340=MECHANICAL_DESIGN_GEOMETRIC_PRESENTATION_REPRESENTATION('',(#171,#172,
#173,#174,#175,#176,#177,#178,#179,#180),#341);
#341=(
GEOMETRIC_REPRESENTATION_CONTEXT(3)
GLOBAL_UNCERTAINTY_ASSIGNED_CONTEXT((#342))
GLOBAL_UNIT_ASSIGNED_CONTEXT((#348,#344,#343))
REPRESENTATION_CONTEXT('1589354223995','TOP_LEVEL_ASSEMBLY_PART')
);
#342=UNCERTAINTY_MEASURE_WITH_UNIT(LENGTH_MEASURE(2.E-5),#348,
'DISTANCE_ACCURACY_VALUE','Maximum Tolerance applied to model');
#343=(
NAMED_UNIT(*)
SI_UNIT($,.STERADIAN.)
SOLID_ANGLE_UNIT()
);
#344=(
CONVERSION_BASED_UNIT('DEGREE',#346)
NAMED_UNIT(#345)
PLANE_ANGLE_UNIT()
);
#345=DIMENSIONAL_EXPONENTS(0.,0.,0.,0.,0.,0.,0.);
#346=PLANE_ANGLE_MEASURE_WITH_UNIT(PLANE_ANGLE_MEASURE(0.0174532925),#347);
#347=(
NAMED_UNIT(*)
PLANE_ANGLE_UNIT()
SI_UNIT($,.RADIAN.)
);
#348=(
LENGTH_UNIT()
NAMED_UNIT(*)
SI_UNIT(.MILLI.,.METRE.)
);
ENDSEC;
END-ISO-10303-21;
