ISO-10303-21;
HEADER;
/* Generated by software containing ST-Developer
 * from STEP Tools, Inc. (www.steptools.com) 
 */
/* OPTION: using custom schema-name function */

FILE_DESCRIPTION(
/* description */ (''),
/* implementation_level */ '2;1');

FILE_NAME(
/* name */ '1588568361172.stp',
/* time_stamp */ '2020-05-04T10:29:32+06:00',
/* author */ (''),
/* organization */ ('SMS'),
/* preprocessor_version */ 'ST-DEVELOPER v16.7',
/* originating_system */ 'SIEMENS PLM Software NX 12.0',
/* authorisation */ '');

FILE_SCHEMA (('AUTOMOTIVE_DESIGN { 1 0 10303 214 3 1 1 1 }'));
ENDSEC;

DATA;
#10=CONSTRUCTIVE_GEOMETRY_REPRESENTATION_RELATIONSHIP(
'supplemental geometry','',#26,#11);
#11=CONSTRUCTIVE_GEOMETRY_REPRESENTATION('supplemental geometry',(#85,#86,
#87),#133);
#12=GEOMETRICALLY_BOUNDED_WIREFRAME_SHAPE_REPRESENTATION(
'202908607mod000_00-None',(#27),#133);
#13=SHAPE_REPRESENTATION_RELATIONSHIP('None',
'relationship between 202908607mod000_00-None and 202908607mod000_00-N
one',#26,#15);
#14=SHAPE_REPRESENTATION_RELATIONSHIP('None',
'relationship between 202908607mod000_00-None and 202908607mod000_00-N
one',#26,#12);
#15=ADVANCED_BREP_SHAPE_REPRESENTATION('202908607mod000_00-None',(#33),
#133);
#16=SHAPE_DEFINITION_REPRESENTATION(#17,#26);
#17=PRODUCT_DEFINITION_SHAPE('','',#18);
#18=PRODUCT_DEFINITION(' ','',#20,#19);
#19=PRODUCT_DEFINITION_CONTEXT('part definition',#25,'design');
#20=PRODUCT_DEFINITION_FORMATION_WITH_SPECIFIED_SOURCE(' ',' ',#22,
 .NOT_KNOWN.);
#21=PRODUCT_RELATED_PRODUCT_CATEGORY('part','',(#22));
#22=PRODUCT('202908607mod000_00','202908607mod000_00',' ',(#23));
#23=PRODUCT_CONTEXT(' ',#25,'mechanical');
#24=APPLICATION_PROTOCOL_DEFINITION('international standard',
'automotive_design',2010,#25);
#25=APPLICATION_CONTEXT(
'core data for automotive mechanical design processes');
#26=SHAPE_REPRESENTATION('202908607mod000_00-None',(#84),#133);
#27=GEOMETRIC_CURVE_SET('None',(#106,#107,#108,#57));
#28=SURFACE_STYLE_USAGE(.BOTH.,#29);
#29=SURFACE_SIDE_STYLE('',(#30));
#30=SURFACE_STYLE_FILL_AREA(#31);
#31=FILL_AREA_STYLE('',(#32));
#32=FILL_AREA_STYLE_COLOUR('',#83);
#33=MANIFOLD_SOLID_BREP('CUT',#34);
#34=CLOSED_SHELL('',(#36,#37));
#35=PLANE('',#90);
#36=ADVANCED_FACE('',(#39),#38,.T.);
#37=ADVANCED_FACE('',(#40),#35,.T.);
#38=SPHERICAL_SURFACE('',#89,5.99599999999997);
#39=FACE_OUTER_BOUND('',#41,.T.);
#40=FACE_OUTER_BOUND('',#42,.T.);
#41=EDGE_LOOP('',(#43));
#42=EDGE_LOOP('',(#44));
#43=ORIENTED_EDGE('',*,*,#46,.T.);
#44=ORIENTED_EDGE('',*,*,#46,.F.);
#45=VERTEX_POINT('',#129);
#46=EDGE_CURVE('',#45,#45,#47,.T.);
#47=CIRCLE('',#88,4.47079363759369);
#48=CURVE_STYLE('',#53,POSITIVE_LENGTH_MEASURE(0.18),#52);
#49=CURVE_STYLE('',#54,POSITIVE_LENGTH_MEASURE(0.18),#82);
#50=CURVE_STYLE('',#55,POSITIVE_LENGTH_MEASURE(0.18),#82);
#51=CURVE_STYLE('',#56,POSITIVE_LENGTH_MEASURE(0.18),#82);
#52=DRAUGHTING_PRE_DEFINED_COLOUR('blue');
#53=DRAUGHTING_PRE_DEFINED_CURVE_FONT('continuous');
#54=DRAUGHTING_PRE_DEFINED_CURVE_FONT('continuous');
#55=DRAUGHTING_PRE_DEFINED_CURVE_FONT('continuous');
#56=DRAUGHTING_PRE_DEFINED_CURVE_FONT('continuous');
#57=TRIMMED_CURVE('CUTTING EDGE LINE',#58,(PARAMETER_VALUE(0.)),(
PARAMETER_VALUE(1.)),.T.,.PARAMETER.);
#58=(
BOUNDED_CURVE()
B_SPLINE_CURVE(3,(#109,#110,#111,#112,#113,#114,#115,#116,#117,#118,#119,
#120,#121,#122,#123,#124),.UNSPECIFIED.,.T.,.F.)
B_SPLINE_CURVE_WITH_KNOTS((4,3,3,3,3,4),(0.,0.0308431629862163,0.413628150790855,
0.488128824726359,0.646365854826422,1.),.UNSPECIFIED.)
CURVE()
GEOMETRIC_REPRESENTATION_ITEM()
RATIONAL_B_SPLINE_CURVE((0.500660662927186,0.499779779024271,0.499779779024271,
0.500660662927186,0.37387697536949,0.37387697536949,0.500660662927186,0.495532083959873,
0.495532083959873,0.500660662927186,0.500660662927186,0.500660662927186,
0.500660662927186,0.500660662927186,0.500660662927186,0.500660662927186))
REPRESENTATION_ITEM('CUTTING EDGE LINE')
);
#59=PRESENTATION_LAYER_ASSIGNMENT('1','Layer 1',(#106,#107,#108,#57,#85,
#86,#87,#33));
#60=STYLED_ITEM('',(#68),#106);
#61=STYLED_ITEM('',(#69),#107);
#62=STYLED_ITEM('',(#70),#108);
#63=STYLED_ITEM('',(#71),#57);
#64=STYLED_ITEM('',(#72),#85);
#65=STYLED_ITEM('',(#73),#86);
#66=STYLED_ITEM('',(#74),#87);
#67=STYLED_ITEM('',(#75),#33);
#68=PRESENTATION_STYLE_ASSIGNMENT((#76));
#69=PRESENTATION_STYLE_ASSIGNMENT((#77));
#70=PRESENTATION_STYLE_ASSIGNMENT((#78));
#71=PRESENTATION_STYLE_ASSIGNMENT((#48));
#72=PRESENTATION_STYLE_ASSIGNMENT((#49));
#73=PRESENTATION_STYLE_ASSIGNMENT((#50));
#74=PRESENTATION_STYLE_ASSIGNMENT((#51));
#75=PRESENTATION_STYLE_ASSIGNMENT((#28));
#76=POINT_STYLE('',#79,POSITIVE_LENGTH_MEASURE(3.),#82);
#77=POINT_STYLE('',#80,POSITIVE_LENGTH_MEASURE(3.),#82);
#78=POINT_STYLE('',#81,POSITIVE_LENGTH_MEASURE(3.),#82);
#79=PRE_DEFINED_POINT_MARKER_SYMBOL('plus');
#80=PRE_DEFINED_POINT_MARKER_SYMBOL('plus');
#81=PRE_DEFINED_POINT_MARKER_SYMBOL('plus');
#82=COLOUR_RGB('Medium Maroon',0.6,0.4,0.4);
#83=COLOUR_RGB('Light Gray',0.8,0.8,0.8);
#84=AXIS2_PLACEMENT_3D('',#105,#91,#92);
#85=AXIS2_PLACEMENT_3D('PCS',#125,#93,#94);
#86=AXIS2_PLACEMENT_3D('MCS',#126,#95,#96);
#87=AXIS2_PLACEMENT_3D('CIP',#127,#97,#98);
#88=AXIS2_PLACEMENT_3D('',#128,#99,#100);
#89=AXIS2_PLACEMENT_3D('',#130,#101,#102);
#90=AXIS2_PLACEMENT_3D('',#131,#103,#104);
#91=DIRECTION('',(0.,0.,1.));
#92=DIRECTION('',(1.,0.,0.));
#93=DIRECTION('',(0.,0.,1.));
#94=DIRECTION('',(1.,0.,0.));
#95=DIRECTION('',(0.,0.,1.));
#96=DIRECTION('',(1.,0.,0.));
#97=DIRECTION('',(0.,0.,1.));
#98=DIRECTION('',(1.,0.,0.));
#99=DIRECTION('',(0.,0.,-1.));
#100=DIRECTION('',(-1.,0.,0.));
#101=DIRECTION('',(-6.12323399573676E-17,0.,-1.));
#102=DIRECTION('',(-1.,-1.68631290994547E-31,0.));
#103=DIRECTION('',(0.,0.,1.));
#104=DIRECTION('',(1.,0.,0.));
#105=CARTESIAN_POINT('',(0.,0.,0.));
#106=CARTESIAN_POINT('',(0.,0.,0.));
#107=CARTESIAN_POINT('',(0.,0.,0.));
#108=CARTESIAN_POINT('',(0.,0.,-9.9955));
#109=CARTESIAN_POINT('',(1.83574555192188E-15,-2.22044604925031E-16,-9.99149999999999));
#110=CARTESIAN_POINT('',(-0.290734553900667,-2.22044604925031E-16,-9.99149999999999));
#111=CARTESIAN_POINT('',(-0.580701811484142,-2.22044604925031E-16,-9.97039146235903));
#112=CARTESIAN_POINT('',(-0.86837123015844,-2.22044604925031E-16,-9.928285804884));
#113=CARTESIAN_POINT('',(-5.02331804431449,-2.22044604925031E-16,-9.32013368294466));
#114=CARTESIAN_POINT('',(-7.12292705743366,-2.22044604925031E-16,-5.68350419619276));
#115=CARTESIAN_POINT('',(-5.57212883731548,-2.22044604925031E-16,-1.78113864277819));
#116=CARTESIAN_POINT('',(-5.31166848736251,-2.22044604925031E-16,-1.12572681388834));
#117=CARTESIAN_POINT('',(-4.94075727962512,-2.22044604925031E-16,-0.525869218035052));
#118=CARTESIAN_POINT('',(-4.47079363759369,-2.22044604925031E-16,6.48303632999614E-12));
#119=CARTESIAN_POINT('',(-2.98052909173299,-2.22044604925031E-16,7.54951656745106E-15));
#120=CARTESIAN_POINT('',(-1.49026454586649,-2.22044604925031E-16,7.54951656745106E-15));
#121=CARTESIAN_POINT('',(0.,-2.22044604925031E-16,7.56823564886461E-15));
#122=CARTESIAN_POINT('',(0.,-2.22044604925031E-16,-3.33049999999999));
#123=CARTESIAN_POINT('',(0.,-2.22044604925031E-16,-6.66099999999999));
#124=CARTESIAN_POINT('',(0.,-2.22044604925031E-16,-9.99149999999999));
#125=CARTESIAN_POINT('',(0.,0.,0.));
#126=CARTESIAN_POINT('',(0.,0.,0.));
#127=CARTESIAN_POINT('',(0.,0.,-9.9955));
#128=CARTESIAN_POINT('',(0.,0.,6.48303632999614E-12));
#129=CARTESIAN_POINT('',(-4.47079363759369,0.,6.48303632999614E-12));
#130=CARTESIAN_POINT('',(1.8936547311979E-15,-2.22044604925018E-16,-3.99550000000003));
#131=CARTESIAN_POINT('',(-4.47079363759369,-2.22044604925031E-16,3.2453022828225E-12));
#132=MECHANICAL_DESIGN_GEOMETRIC_PRESENTATION_REPRESENTATION('',(#60,#61,
#62,#63,#64,#65,#66,#67),#133);
#133=(
GEOMETRIC_REPRESENTATION_CONTEXT(3)
GLOBAL_UNCERTAINTY_ASSIGNED_CONTEXT((#134))
GLOBAL_UNIT_ASSIGNED_CONTEXT((#140,#136,#135))
REPRESENTATION_CONTEXT('1588568361172','TOP_LEVEL_ASSEMBLY_PART')
);
#134=UNCERTAINTY_MEASURE_WITH_UNIT(LENGTH_MEASURE(2.E-5),#140,
'DISTANCE_ACCURACY_VALUE','Maximum Tolerance applied to model');
#135=(
NAMED_UNIT(*)
SI_UNIT($,.STERADIAN.)
SOLID_ANGLE_UNIT()
);
#136=(
CONVERSION_BASED_UNIT('DEGREE',#138)
NAMED_UNIT(#137)
PLANE_ANGLE_UNIT()
);
#137=DIMENSIONAL_EXPONENTS(0.,0.,0.,0.,0.,0.,0.);
#138=PLANE_ANGLE_MEASURE_WITH_UNIT(PLANE_ANGLE_MEASURE(0.0174532925),#139);
#139=(
NAMED_UNIT(*)
PLANE_ANGLE_UNIT()
SI_UNIT($,.RADIAN.)
);
#140=(
LENGTH_UNIT()
NAMED_UNIT(*)
SI_UNIT(.MILLI.,.METRE.)
);
ENDSEC;
END-ISO-10303-21;
