ISO-10303-21;
HEADER;
/* Generated by software containing ST-Developer
 * from STEP Tools, Inc. (www.steptools.com) 
 */
/* OPTION: using custom schema-name function */

FILE_DESCRIPTION(
/* description */ (''),
/* implementation_level */ '2;1');

FILE_NAME(
/* name */ '1588578153075.stp',
/* time_stamp */ '2020-05-04T13:12:50+06:00',
/* author */ (''),
/* organization */ ('SMS'),
/* preprocessor_version */ 'ST-DEVELOPER v16.7',
/* originating_system */ 'SIEMENS PLM Software NX 12.0',
/* authorisation */ '');

FILE_SCHEMA (('AUTOMOTIVE_DESIGN { 1 0 10303 214 3 1 1 1 }'));
ENDSEC;

DATA;
#10=CONSTRUCTIVE_GEOMETRY_REPRESENTATION_RELATIONSHIP(
'supplemental geometry','',#26,#11);
#11=CONSTRUCTIVE_GEOMETRY_REPRESENTATION('supplemental geometry',(#85,#86,
#87),#127);
#12=GEOMETRICALLY_BOUNDED_WIREFRAME_SHAPE_REPRESENTATION(
'202908601mod000_00-None',(#27),#127);
#13=SHAPE_REPRESENTATION_RELATIONSHIP('None',
'relationship between 202908601mod000_00-None and 202908601mod000_00-N
one',#26,#15);
#14=SHAPE_REPRESENTATION_RELATIONSHIP('None',
'relationship between 202908601mod000_00-None and 202908601mod000_00-N
one',#26,#12);
#15=ADVANCED_BREP_SHAPE_REPRESENTATION('202908601mod000_00-None',(#33),
#127);
#16=SHAPE_DEFINITION_REPRESENTATION(#17,#26);
#17=PRODUCT_DEFINITION_SHAPE('','',#18);
#18=PRODUCT_DEFINITION(' ','',#20,#19);
#19=PRODUCT_DEFINITION_CONTEXT('part definition',#25,'design');
#20=PRODUCT_DEFINITION_FORMATION_WITH_SPECIFIED_SOURCE(' ',' ',#22,
 .NOT_KNOWN.);
#21=PRODUCT_RELATED_PRODUCT_CATEGORY('part','',(#22));
#22=PRODUCT('202908601mod000_00','202908601mod000_00',' ',(#23));
#23=PRODUCT_CONTEXT(' ',#25,'mechanical');
#24=APPLICATION_PROTOCOL_DEFINITION('international standard',
'automotive_design',2010,#25);
#25=APPLICATION_CONTEXT(
'core data for automotive mechanical design processes');
#26=SHAPE_REPRESENTATION('202908601mod000_00-None',(#84),#127);
#27=GEOMETRIC_CURVE_SET('None',(#106,#107,#108,#57));
#28=SURFACE_STYLE_USAGE(.BOTH.,#29);
#29=SURFACE_SIDE_STYLE('',(#30));
#30=SURFACE_STYLE_FILL_AREA(#31);
#31=FILL_AREA_STYLE('',(#32));
#32=FILL_AREA_STYLE_COLOUR('',#83);
#33=MANIFOLD_SOLID_BREP('CUT',#34);
#34=CLOSED_SHELL('',(#36,#37));
#35=PLANE('',#90);
#36=ADVANCED_FACE('',(#39),#38,.T.);
#37=ADVANCED_FACE('',(#40),#35,.T.);
#38=SPHERICAL_SURFACE('',#89,15.996);
#39=FACE_OUTER_BOUND('',#41,.T.);
#40=FACE_OUTER_BOUND('',#42,.T.);
#41=EDGE_LOOP('',(#43));
#42=EDGE_LOOP('',(#44));
#43=ORIENTED_EDGE('',*,*,#46,.T.);
#44=ORIENTED_EDGE('',*,*,#46,.F.);
#45=VERTEX_POINT('',#123);
#46=EDGE_CURVE('',#45,#45,#47,.T.);
#47=CIRCLE('',#88,14.1307555331447);
#48=CURVE_STYLE('',#53,POSITIVE_LENGTH_MEASURE(0.18),#52);
#49=CURVE_STYLE('',#54,POSITIVE_LENGTH_MEASURE(0.18),#82);
#50=CURVE_STYLE('',#55,POSITIVE_LENGTH_MEASURE(0.18),#82);
#51=CURVE_STYLE('',#56,POSITIVE_LENGTH_MEASURE(0.18),#82);
#52=DRAUGHTING_PRE_DEFINED_COLOUR('blue');
#53=DRAUGHTING_PRE_DEFINED_CURVE_FONT('continuous');
#54=DRAUGHTING_PRE_DEFINED_CURVE_FONT('continuous');
#55=DRAUGHTING_PRE_DEFINED_CURVE_FONT('continuous');
#56=DRAUGHTING_PRE_DEFINED_CURVE_FONT('continuous');
#57=TRIMMED_CURVE('CUTTING EDGE LINE',#58,(PARAMETER_VALUE(0.)),(
PARAMETER_VALUE(1.)),.T.,.PARAMETER.);
#58=(
BOUNDED_CURVE()
B_SPLINE_CURVE(3,(#109,#110,#111,#112,#113,#114,#115,#116,#117,#118),
 .UNSPECIFIED.,.F.,.F.)
B_SPLINE_CURVE_WITH_KNOTS((4,3,3,4),(0.,0.200290386544023,0.667019798923855,
1.),.UNSPECIFIED.)
CURVE()
GEOMETRIC_REPRESENTATION_ITEM()
RATIONAL_B_SPLINE_CURVE((1.,1.,1.,1.,0.676963372378622,0.676963372378622,
1.,1.,1.,1.))
REPRESENTATION_ITEM('CUTTING EDGE LINE')
);
#59=PRESENTATION_LAYER_ASSIGNMENT('1','Layer 1',(#106,#107,#108,#57,#85,
#86,#87,#33));
#60=STYLED_ITEM('',(#68),#106);
#61=STYLED_ITEM('',(#69),#107);
#62=STYLED_ITEM('',(#70),#108);
#63=STYLED_ITEM('',(#71),#57);
#64=STYLED_ITEM('',(#72),#85);
#65=STYLED_ITEM('',(#73),#86);
#66=STYLED_ITEM('',(#74),#87);
#67=STYLED_ITEM('',(#75),#33);
#68=PRESENTATION_STYLE_ASSIGNMENT((#76));
#69=PRESENTATION_STYLE_ASSIGNMENT((#77));
#70=PRESENTATION_STYLE_ASSIGNMENT((#78));
#71=PRESENTATION_STYLE_ASSIGNMENT((#48));
#72=PRESENTATION_STYLE_ASSIGNMENT((#49));
#73=PRESENTATION_STYLE_ASSIGNMENT((#50));
#74=PRESENTATION_STYLE_ASSIGNMENT((#51));
#75=PRESENTATION_STYLE_ASSIGNMENT((#28));
#76=POINT_STYLE('',#79,POSITIVE_LENGTH_MEASURE(3.),#82);
#77=POINT_STYLE('',#80,POSITIVE_LENGTH_MEASURE(3.),#82);
#78=POINT_STYLE('',#81,POSITIVE_LENGTH_MEASURE(3.),#82);
#79=PRE_DEFINED_POINT_MARKER_SYMBOL('plus');
#80=PRE_DEFINED_POINT_MARKER_SYMBOL('plus');
#81=PRE_DEFINED_POINT_MARKER_SYMBOL('plus');
#82=COLOUR_RGB('Medium Maroon',0.6,0.4,0.4);
#83=COLOUR_RGB('Light Gray',0.8,0.8,0.8);
#84=AXIS2_PLACEMENT_3D('',#105,#91,#92);
#85=AXIS2_PLACEMENT_3D('PCS',#119,#93,#94);
#86=AXIS2_PLACEMENT_3D('MCS',#120,#95,#96);
#87=AXIS2_PLACEMENT_3D('CIP',#121,#97,#98);
#88=AXIS2_PLACEMENT_3D('',#122,#99,#100);
#89=AXIS2_PLACEMENT_3D('',#124,#101,#102);
#90=AXIS2_PLACEMENT_3D('',#125,#103,#104);
#91=DIRECTION('',(0.,0.,1.));
#92=DIRECTION('',(1.,0.,0.));
#93=DIRECTION('',(0.,0.,1.));
#94=DIRECTION('',(1.,0.,0.));
#95=DIRECTION('',(0.,0.,1.));
#96=DIRECTION('',(1.,0.,0.));
#97=DIRECTION('',(0.,0.,1.));
#98=DIRECTION('',(1.,0.,0.));
#99=DIRECTION('',(0.,0.,-1.));
#100=DIRECTION('',(-1.,0.,0.));
#101=DIRECTION('',(6.12323399573677E-17,0.,-1.));
#102=DIRECTION('',(1.,-1.71997389347636E-17,0.));
#103=DIRECTION('',(0.,0.,1.));
#104=DIRECTION('',(1.,0.,0.));
#105=CARTESIAN_POINT('',(0.,0.,0.));
#106=CARTESIAN_POINT('',(0.,0.,0.));
#107=CARTESIAN_POINT('MCS',(0.,0.,0.));
#108=CARTESIAN_POINT('',(3.85185988877447E-31,0.,-23.4962));
#109=CARTESIAN_POINT('',(0.,-1.33226762955019E-15,4.99999999910017E-5));
#110=CARTESIAN_POINT('',(-4.71025184438157,-1.33226762955019E-15,4.99999999910017E-5));
#111=CARTESIAN_POINT('',(-9.42050368876315,-1.33226762955019E-15,4.99999999910017E-5));
#112=CARTESIAN_POINT('',(-14.1307555331447,-1.33226762955019E-15,4.99999999945544E-5));
#113=CARTESIAN_POINT('',(-20.4567563357269,-6.56001828119123E-16,-11.9247351717548));
#114=CARTESIAN_POINT('',(-13.4988439337142,-6.56001828119123E-16,-23.4922));
#115=CARTESIAN_POINT('',(4.65496972586647E-15,-8.88178419700125E-16,-23.4922));
#116=CARTESIAN_POINT('',(0.,0.,-15.6614666666667));
#117=CARTESIAN_POINT('',(0.,0.,-7.83073333333333));
#118=CARTESIAN_POINT('',(0.,0.,0.));
#119=CARTESIAN_POINT('',(0.,0.,0.));
#120=CARTESIAN_POINT('',(0.,0.,0.));
#121=CARTESIAN_POINT('',(3.85185988877447E-31,0.,-23.4962));
#122=CARTESIAN_POINT('',(0.,0.,4.99999999945544E-5));
#123=CARTESIAN_POINT('',(-14.1307555331447,0.,4.99999999945544E-5));
#124=CARTESIAN_POINT('',(-1.78377634698727E-15,-1.43398287097835E-15,-7.4962));
#125=CARTESIAN_POINT('',(-14.1307555331447,-1.33226762955019E-15,4.99999999927781E-5));
#126=MECHANICAL_DESIGN_GEOMETRIC_PRESENTATION_REPRESENTATION('',(#60,#61,
#62,#63,#64,#65,#66,#67),#127);
#127=(
GEOMETRIC_REPRESENTATION_CONTEXT(3)
GLOBAL_UNCERTAINTY_ASSIGNED_CONTEXT((#128))
GLOBAL_UNIT_ASSIGNED_CONTEXT((#134,#130,#129))
REPRESENTATION_CONTEXT('1588578153075','TOP_LEVEL_ASSEMBLY_PART')
);
#128=UNCERTAINTY_MEASURE_WITH_UNIT(LENGTH_MEASURE(2.E-5),#134,
'DISTANCE_ACCURACY_VALUE','Maximum Tolerance applied to model');
#129=(
NAMED_UNIT(*)
SI_UNIT($,.STERADIAN.)
SOLID_ANGLE_UNIT()
);
#130=(
CONVERSION_BASED_UNIT('DEGREE',#132)
NAMED_UNIT(#131)
PLANE_ANGLE_UNIT()
);
#131=DIMENSIONAL_EXPONENTS(0.,0.,0.,0.,0.,0.,0.);
#132=PLANE_ANGLE_MEASURE_WITH_UNIT(PLANE_ANGLE_MEASURE(0.0174532925),#133);
#133=(
NAMED_UNIT(*)
PLANE_ANGLE_UNIT()
SI_UNIT($,.RADIAN.)
);
#134=(
LENGTH_UNIT()
NAMED_UNIT(*)
SI_UNIT(.MILLI.,.METRE.)
);
ENDSEC;
END-ISO-10303-21;
