ISO-10303-21;
HEADER;
/* Generated by software containing ST-Developer
 * from STEP Tools, Inc. (www.steptools.com) 
 */
/* OPTION: using custom schema-name function */

FILE_DESCRIPTION(
/* description */ (''),
/* implementation_level */ '2;1');

FILE_NAME(
/* name */ '1588578113716.stp',
/* time_stamp */ '2020-05-04T13:12:08+06:00',
/* author */ (''),
/* organization */ ('SMS'),
/* preprocessor_version */ 'ST-DEVELOPER v16.7',
/* originating_system */ 'SIEMENS PLM Software NX 12.0',
/* authorisation */ '');

FILE_SCHEMA (('AUTOMOTIVE_DESIGN { 1 0 10303 214 3 1 1 1 }'));
ENDSEC;

DATA;
#10=CONSTRUCTIVE_GEOMETRY_REPRESENTATION_RELATIONSHIP(
'supplemental geometry','',#26,#11);
#11=CONSTRUCTIVE_GEOMETRY_REPRESENTATION('supplemental geometry',(#85,#86,
#87),#130);
#12=GEOMETRICALLY_BOUNDED_WIREFRAME_SHAPE_REPRESENTATION(
'202908585mod000_00-None',(#27),#130);
#13=SHAPE_REPRESENTATION_RELATIONSHIP('None',
'relationship between 202908585mod000_00-None and 202908585mod000_00-N
one',#26,#15);
#14=SHAPE_REPRESENTATION_RELATIONSHIP('None',
'relationship between 202908585mod000_00-None and 202908585mod000_00-N
one',#26,#12);
#15=ADVANCED_BREP_SHAPE_REPRESENTATION('202908585mod000_00-None',(#33),
#130);
#16=SHAPE_DEFINITION_REPRESENTATION(#17,#26);
#17=PRODUCT_DEFINITION_SHAPE('','',#18);
#18=PRODUCT_DEFINITION(' ','',#20,#19);
#19=PRODUCT_DEFINITION_CONTEXT('part definition',#25,'design');
#20=PRODUCT_DEFINITION_FORMATION_WITH_SPECIFIED_SOURCE(' ',' ',#22,
 .NOT_KNOWN.);
#21=PRODUCT_RELATED_PRODUCT_CATEGORY('part','',(#22));
#22=PRODUCT('202908585mod000_00','202908585mod000_00',' ',(#23));
#23=PRODUCT_CONTEXT(' ',#25,'mechanical');
#24=APPLICATION_PROTOCOL_DEFINITION('international standard',
'automotive_design',2010,#25);
#25=APPLICATION_CONTEXT(
'core data for automotive mechanical design processes');
#26=SHAPE_REPRESENTATION('202908585mod000_00-None',(#84),#130);
#27=GEOMETRIC_CURVE_SET('None',(#106,#107,#108,#57));
#28=SURFACE_STYLE_USAGE(.BOTH.,#29);
#29=SURFACE_SIDE_STYLE('',(#30));
#30=SURFACE_STYLE_FILL_AREA(#31);
#31=FILL_AREA_STYLE('',(#32));
#32=FILL_AREA_STYLE_COLOUR('',#83);
#33=MANIFOLD_SOLID_BREP('CUT',#34);
#34=CLOSED_SHELL('',(#36,#37));
#35=PLANE('',#90);
#36=ADVANCED_FACE('',(#39),#38,.T.);
#37=ADVANCED_FACE('',(#40),#35,.T.);
#38=SPHERICAL_SURFACE('',#89,7.99599999999274);
#39=FACE_OUTER_BOUND('',#41,.T.);
#40=FACE_OUTER_BOUND('',#42,.T.);
#41=EDGE_LOOP('',(#43));
#42=EDGE_LOOP('',(#44));
#43=ORIENTED_EDGE('',*,*,#46,.T.);
#44=ORIENTED_EDGE('',*,*,#46,.F.);
#45=VERTEX_POINT('',#126);
#46=EDGE_CURVE('',#45,#45,#47,.T.);
#47=CIRCLE('',#88,6.92618190275133);
#48=CURVE_STYLE('',#53,POSITIVE_LENGTH_MEASURE(0.18),#52);
#49=CURVE_STYLE('',#54,POSITIVE_LENGTH_MEASURE(0.18),#82);
#50=CURVE_STYLE('',#55,POSITIVE_LENGTH_MEASURE(0.18),#82);
#51=CURVE_STYLE('',#56,POSITIVE_LENGTH_MEASURE(0.18),#82);
#52=DRAUGHTING_PRE_DEFINED_COLOUR('blue');
#53=DRAUGHTING_PRE_DEFINED_CURVE_FONT('continuous');
#54=DRAUGHTING_PRE_DEFINED_CURVE_FONT('continuous');
#55=DRAUGHTING_PRE_DEFINED_CURVE_FONT('continuous');
#56=DRAUGHTING_PRE_DEFINED_CURVE_FONT('continuous');
#57=TRIMMED_CURVE('CUTTING EDGE LINE',#58,(PARAMETER_VALUE(0.)),(
PARAMETER_VALUE(1.)),.T.,.PARAMETER.);
#58=(
BOUNDED_CURVE()
B_SPLINE_CURVE(3,(#109,#110,#111,#112,#113,#114,#115,#116,#117,#118,#119,
#120,#121),.UNSPECIFIED.,.T.,.F.)
B_SPLINE_CURVE_WITH_KNOTS((4,3,3,3,4),(0.,0.194219722092848,0.242497131983538,
0.663741751199388,1.),.UNSPECIFIED.)
CURVE()
GEOMETRIC_REPRESENTATION_ITEM()
RATIONAL_B_SPLINE_CURVE((1.,1.,1.,1.,0.996140396069082,0.996140396069082,
1.,0.726869726099239,0.726869726099239,1.,1.,1.,1.))
REPRESENTATION_ITEM('CUTTING EDGE LINE')
);
#59=PRESENTATION_LAYER_ASSIGNMENT('1','Layer 1',(#106,#107,#108,#57,#85,
#86,#87,#33));
#60=STYLED_ITEM('',(#68),#106);
#61=STYLED_ITEM('',(#69),#107);
#62=STYLED_ITEM('',(#70),#108);
#63=STYLED_ITEM('',(#71),#57);
#64=STYLED_ITEM('',(#72),#85);
#65=STYLED_ITEM('',(#73),#86);
#66=STYLED_ITEM('',(#74),#87);
#67=STYLED_ITEM('',(#75),#33);
#68=PRESENTATION_STYLE_ASSIGNMENT((#76));
#69=PRESENTATION_STYLE_ASSIGNMENT((#77));
#70=PRESENTATION_STYLE_ASSIGNMENT((#78));
#71=PRESENTATION_STYLE_ASSIGNMENT((#48));
#72=PRESENTATION_STYLE_ASSIGNMENT((#49));
#73=PRESENTATION_STYLE_ASSIGNMENT((#50));
#74=PRESENTATION_STYLE_ASSIGNMENT((#51));
#75=PRESENTATION_STYLE_ASSIGNMENT((#28));
#76=POINT_STYLE('',#79,POSITIVE_LENGTH_MEASURE(3.),#82);
#77=POINT_STYLE('',#80,POSITIVE_LENGTH_MEASURE(3.),#82);
#78=POINT_STYLE('',#81,POSITIVE_LENGTH_MEASURE(3.),#82);
#79=PRE_DEFINED_POINT_MARKER_SYMBOL('plus');
#80=PRE_DEFINED_POINT_MARKER_SYMBOL('plus');
#81=PRE_DEFINED_POINT_MARKER_SYMBOL('plus');
#82=COLOUR_RGB('Medium Maroon',0.6,0.4,0.4);
#83=COLOUR_RGB('Light Gray',0.8,0.8,0.8);
#84=AXIS2_PLACEMENT_3D('',#105,#91,#92);
#85=AXIS2_PLACEMENT_3D('PCS',#122,#93,#94);
#86=AXIS2_PLACEMENT_3D('MCS',#123,#95,#96);
#87=AXIS2_PLACEMENT_3D('CIP',#124,#97,#98);
#88=AXIS2_PLACEMENT_3D('',#125,#99,#100);
#89=AXIS2_PLACEMENT_3D('',#127,#101,#102);
#90=AXIS2_PLACEMENT_3D('',#128,#103,#104);
#91=DIRECTION('',(0.,0.,1.));
#92=DIRECTION('',(1.,0.,0.));
#93=DIRECTION('',(0.,0.,1.));
#94=DIRECTION('',(1.,0.,0.));
#95=DIRECTION('',(0.,0.,1.));
#96=DIRECTION('',(1.,0.,0.));
#97=DIRECTION('',(0.,0.,1.));
#98=DIRECTION('',(1.,0.,0.));
#99=DIRECTION('',(0.,0.,-1.));
#100=DIRECTION('',(-1.,0.,0.));
#101=DIRECTION('',(-6.12323399573677E-17,0.,-1.));
#102=DIRECTION('',(-1.,5.91327350820474E-17,0.));
#103=DIRECTION('',(0.,0.,1.));
#104=DIRECTION('',(1.,0.,0.));
#105=CARTESIAN_POINT('',(0.,0.,0.));
#106=CARTESIAN_POINT('',(0.,0.,0.));
#107=CARTESIAN_POINT('',(0.,0.,0.));
#108=CARTESIAN_POINT('',(0.,0.,-11.9955));
#109=CARTESIAN_POINT('',(0.,4.44089209850063E-16,1.33226762955019E-15));
#110=CARTESIAN_POINT('',(-2.30872730091711,4.44089209850063E-16,1.33226762955019E-15));
#111=CARTESIAN_POINT('',(-4.61745460183422,4.44089209850063E-16,1.33226762955019E-15));
#112=CARTESIAN_POINT('',(-6.92618190275133,4.44089209850063E-16,2.22044604925031E-15));
#113=CARTESIAN_POINT('',(-7.2134992399493,4.44089209850063E-16,-0.498063356587987));
#114=CARTESIAN_POINT('',(-7.44563675470237,4.44089209850063E-16,-1.02411519212751));
#115=CARTESIAN_POINT('',(-7.61990657042318,7.94133999890943E-16,-1.57206445144055));
#116=CARTESIAN_POINT('',(-9.41403835352665,4.39789338142519E-15,-7.21327763339791));
#117=CARTESIAN_POINT('',(-5.91964483894062,1.14417878993182E-15,-11.9915));
#118=CARTESIAN_POINT('',(2.44806895149556E-16,7.94133999890943E-16,-11.9915));
#119=CARTESIAN_POINT('',(0.,4.44089209850063E-16,-7.99433333333333));
#120=CARTESIAN_POINT('',(0.,4.44089209850063E-16,-3.99716666666667));
#121=CARTESIAN_POINT('',(0.,4.44089209850063E-16,1.77635683940025E-15));
#122=CARTESIAN_POINT('',(0.,0.,0.));
#123=CARTESIAN_POINT('',(0.,0.,0.));
#124=CARTESIAN_POINT('',(0.,0.,-11.9955));
#125=CARTESIAN_POINT('',(0.,0.,2.22044604925031E-15));
#126=CARTESIAN_POINT('',(-6.92618190275133,0.,2.22044604925031E-15));
#127=CARTESIAN_POINT('',(9.14559089545482E-15,-1.15871088149025E-15,-3.99550000002084));
#128=CARTESIAN_POINT('',(-6.92618190275133,4.44089209850063E-16,1.77635683940025E-15));
#129=MECHANICAL_DESIGN_GEOMETRIC_PRESENTATION_REPRESENTATION('',(#60,#61,
#62,#63,#64,#65,#66,#67),#130);
#130=(
GEOMETRIC_REPRESENTATION_CONTEXT(3)
GLOBAL_UNCERTAINTY_ASSIGNED_CONTEXT((#131))
GLOBAL_UNIT_ASSIGNED_CONTEXT((#137,#133,#132))
REPRESENTATION_CONTEXT('1588578113716','TOP_LEVEL_ASSEMBLY_PART')
);
#131=UNCERTAINTY_MEASURE_WITH_UNIT(LENGTH_MEASURE(2.E-5),#137,
'DISTANCE_ACCURACY_VALUE','Maximum Tolerance applied to model');
#132=(
NAMED_UNIT(*)
SI_UNIT($,.STERADIAN.)
SOLID_ANGLE_UNIT()
);
#133=(
CONVERSION_BASED_UNIT('DEGREE',#135)
NAMED_UNIT(#134)
PLANE_ANGLE_UNIT()
);
#134=DIMENSIONAL_EXPONENTS(0.,0.,0.,0.,0.,0.,0.);
#135=PLANE_ANGLE_MEASURE_WITH_UNIT(PLANE_ANGLE_MEASURE(0.0174532925),#136);
#136=(
NAMED_UNIT(*)
PLANE_ANGLE_UNIT()
SI_UNIT($,.RADIAN.)
);
#137=(
LENGTH_UNIT()
NAMED_UNIT(*)
SI_UNIT(.MILLI.,.METRE.)
);
ENDSEC;
END-ISO-10303-21;
