ISO-10303-21;
HEADER;
/* Generated by software containing ST-Developer
 * from STEP Tools, Inc. (www.steptools.com) 
 */
/* OPTION: using custom schema-name function */

FILE_DESCRIPTION(
/* description */ (''),
/* implementation_level */ '2;1');

FILE_NAME(
/* name */ '1588578040468.stp',
/* time_stamp */ '2020-05-04T13:10:53+06:00',
/* author */ (''),
/* organization */ ('SMS'),
/* preprocessor_version */ 'ST-DEVELOPER v16.7',
/* originating_system */ 'SIEMENS PLM Software NX 12.0',
/* authorisation */ '');

FILE_SCHEMA (('AUTOMOTIVE_DESIGN { 1 0 10303 214 3 1 1 1 }'));
ENDSEC;

DATA;
#10=CONSTRUCTIVE_GEOMETRY_REPRESENTATION_RELATIONSHIP(
'supplemental geometry','',#26,#11);
#11=CONSTRUCTIVE_GEOMETRY_REPRESENTATION('supplemental geometry',(#86,#87,
#88),#128);
#12=GEOMETRICALLY_BOUNDED_WIREFRAME_SHAPE_REPRESENTATION(
'202908366mod000_00-None',(#27),#128);
#13=SHAPE_REPRESENTATION_RELATIONSHIP('None',
'relationship between 202908366mod000_00-None and 202908366mod000_00-N
one',#26,#15);
#14=SHAPE_REPRESENTATION_RELATIONSHIP('None',
'relationship between 202908366mod000_00-None and 202908366mod000_00-N
one',#26,#12);
#15=ADVANCED_BREP_SHAPE_REPRESENTATION('202908366mod000_00-None',(#33),
#128);
#16=SHAPE_DEFINITION_REPRESENTATION(#17,#26);
#17=PRODUCT_DEFINITION_SHAPE('','',#18);
#18=PRODUCT_DEFINITION(' ','',#20,#19);
#19=PRODUCT_DEFINITION_CONTEXT('part definition',#25,'design');
#20=PRODUCT_DEFINITION_FORMATION_WITH_SPECIFIED_SOURCE(' ',' ',#22,
 .NOT_KNOWN.);
#21=PRODUCT_RELATED_PRODUCT_CATEGORY('part','',(#22));
#22=PRODUCT('202908366mod000_00','202908366mod000_00',' ',(#23));
#23=PRODUCT_CONTEXT(' ',#25,'mechanical');
#24=APPLICATION_PROTOCOL_DEFINITION('international standard',
'automotive_design',2010,#25);
#25=APPLICATION_CONTEXT(
'core data for automotive mechanical design processes');
#26=SHAPE_REPRESENTATION('202908366mod000_00-None',(#85),#128);
#27=GEOMETRIC_CURVE_SET('None',(#107,#108,#109,#57));
#28=SURFACE_STYLE_USAGE(.BOTH.,#29);
#29=SURFACE_SIDE_STYLE('',(#30));
#30=SURFACE_STYLE_FILL_AREA(#31);
#31=FILL_AREA_STYLE('',(#32));
#32=FILL_AREA_STYLE_COLOUR('',#84);
#33=MANIFOLD_SOLID_BREP('CUT',#34);
#34=CLOSED_SHELL('',(#36,#37));
#35=PLANE('',#91);
#36=ADVANCED_FACE('',(#39),#38,.T.);
#37=ADVANCED_FACE('',(#40),#35,.T.);
#38=SPHERICAL_SURFACE('',#90,12.496);
#39=FACE_OUTER_BOUND('',#41,.T.);
#40=FACE_OUTER_BOUND('',#42,.T.);
#41=EDGE_LOOP('',(#43));
#42=EDGE_LOOP('',(#44));
#43=ORIENTED_EDGE('',*,*,#46,.T.);
#44=ORIENTED_EDGE('',*,*,#46,.F.);
#45=VERTEX_POINT('',#124);
#46=EDGE_CURVE('',#45,#45,#47,.T.);
#47=CIRCLE('',#89,10.9637582858252);
#48=CURVE_STYLE('',#53,POSITIVE_LENGTH_MEASURE(0.18),#52);
#49=CURVE_STYLE('',#54,POSITIVE_LENGTH_MEASURE(0.18),#82);
#50=CURVE_STYLE('',#55,POSITIVE_LENGTH_MEASURE(0.18),#82);
#51=CURVE_STYLE('',#56,POSITIVE_LENGTH_MEASURE(0.18),#83);
#52=DRAUGHTING_PRE_DEFINED_COLOUR('blue');
#53=DRAUGHTING_PRE_DEFINED_CURVE_FONT('continuous');
#54=DRAUGHTING_PRE_DEFINED_CURVE_FONT('continuous');
#55=DRAUGHTING_PRE_DEFINED_CURVE_FONT('continuous');
#56=DRAUGHTING_PRE_DEFINED_CURVE_FONT('continuous');
#57=TRIMMED_CURVE('CUTTING EDGE LINE',#58,(PARAMETER_VALUE(0.)),(
PARAMETER_VALUE(1.)),.T.,.PARAMETER.);
#58=(
BOUNDED_CURVE()
B_SPLINE_CURVE(3,(#110,#111,#112,#113,#114,#115,#116,#117,#118,#119),
 .UNSPECIFIED.,.T.,.F.)
B_SPLINE_CURVE_WITH_KNOTS((4,3,3,4),(0.,0.334160566862557,0.532287040305357,
1.),.UNSPECIFIED.)
CURVE()
GEOMETRIC_REPRESENTATION_ITEM()
RATIONAL_B_SPLINE_CURVE((1.,1.,1.,1.,1.,1.,1.,0.673335446421255,0.673335446421255,
1.))
REPRESENTATION_ITEM('CUTTING EDGE LINE')
);
#59=PRESENTATION_LAYER_ASSIGNMENT('1','Layer 1',(#107,#108,#109,#57,#86,
#87,#88,#33));
#60=STYLED_ITEM('',(#68),#107);
#61=STYLED_ITEM('',(#69),#108);
#62=STYLED_ITEM('',(#70),#109);
#63=STYLED_ITEM('',(#71),#57);
#64=STYLED_ITEM('',(#72),#86);
#65=STYLED_ITEM('',(#73),#87);
#66=STYLED_ITEM('',(#74),#88);
#67=STYLED_ITEM('',(#75),#33);
#68=PRESENTATION_STYLE_ASSIGNMENT((#76));
#69=PRESENTATION_STYLE_ASSIGNMENT((#77));
#70=PRESENTATION_STYLE_ASSIGNMENT((#78));
#71=PRESENTATION_STYLE_ASSIGNMENT((#48));
#72=PRESENTATION_STYLE_ASSIGNMENT((#49));
#73=PRESENTATION_STYLE_ASSIGNMENT((#50));
#74=PRESENTATION_STYLE_ASSIGNMENT((#51));
#75=PRESENTATION_STYLE_ASSIGNMENT((#28));
#76=POINT_STYLE('',#79,POSITIVE_LENGTH_MEASURE(3.),#82);
#77=POINT_STYLE('',#80,POSITIVE_LENGTH_MEASURE(3.),#82);
#78=POINT_STYLE('',#81,POSITIVE_LENGTH_MEASURE(3.),#83);
#79=PRE_DEFINED_POINT_MARKER_SYMBOL('plus');
#80=PRE_DEFINED_POINT_MARKER_SYMBOL('plus');
#81=PRE_DEFINED_POINT_MARKER_SYMBOL('plus');
#82=COLOUR_RGB('Medium Maroon',0.6,0.4,0.4);
#83=COLOUR_RGB('Strong Stone',0.576470588235294,0.54508278019379,0.392156862745098);
#84=COLOUR_RGB('Light Gray',0.8,0.8,0.8);
#85=AXIS2_PLACEMENT_3D('',#106,#92,#93);
#86=AXIS2_PLACEMENT_3D('CIP',#120,#94,#95);
#87=AXIS2_PLACEMENT_3D('PCS',#121,#96,#97);
#88=AXIS2_PLACEMENT_3D('MCS',#122,#98,#99);
#89=AXIS2_PLACEMENT_3D('',#123,#100,#101);
#90=AXIS2_PLACEMENT_3D('',#125,#102,#103);
#91=AXIS2_PLACEMENT_3D('',#126,#104,#105);
#92=DIRECTION('',(0.,0.,1.));
#93=DIRECTION('',(1.,0.,0.));
#94=DIRECTION('',(0.,0.,1.));
#95=DIRECTION('',(1.,0.,0.));
#96=DIRECTION('',(0.,0.,1.));
#97=DIRECTION('',(1.,0.,0.));
#98=DIRECTION('',(0.,0.,1.));
#99=DIRECTION('',(1.,0.,0.));
#100=DIRECTION('',(0.,0.,-1.));
#101=DIRECTION('',(-1.,0.,0.));
#102=DIRECTION('',(6.12323399573676E-17,0.,-1.));
#103=DIRECTION('',(1.,0.,0.));
#104=DIRECTION('',(0.,0.,1.));
#105=DIRECTION('',(1.,0.,0.));
#106=CARTESIAN_POINT('',(0.,0.,0.));
#107=CARTESIAN_POINT('CIP',(0.,0.,-18.4955));
#108=CARTESIAN_POINT('PCS',(0.,0.,0.));
#109=CARTESIAN_POINT('MCS',(0.,0.,0.));
#110=CARTESIAN_POINT('',(0.,0.,-18.4915000003416));
#111=CARTESIAN_POINT('',(0.,0.,-12.3276666668944));
#112=CARTESIAN_POINT('',(0.,0.,-6.1638333334472));
#113=CARTESIAN_POINT('',(0.,2.22044604925031E-16,-1.77635683940025E-15));
#114=CARTESIAN_POINT('',(-3.65458609527506,4.44089209850063E-16,-3.5527136788005E-15));
#115=CARTESIAN_POINT('',(-7.30917219055011,4.44089209850063E-16,-3.5527136788005E-15));
#116=CARTESIAN_POINT('',(-10.9637582858252,4.44089209850063E-16,-1.77635683940025E-15));
#117=CARTESIAN_POINT('',(-16.0698455818737,4.44089209850063E-16,-9.33732080730528));
#118=CARTESIAN_POINT('',(-10.6422595031977,4.44089209850063E-16,-18.4915000000001));
#119=CARTESIAN_POINT('',(1.18259656257764E-13,4.44089209850063E-16,-18.4915));
#120=CARTESIAN_POINT('',(0.,0.,-18.4955));
#121=CARTESIAN_POINT('',(0.,0.,0.));
#122=CARTESIAN_POINT('',(0.,0.,0.));
#123=CARTESIAN_POINT('',(0.,0.,-1.77635683940025E-15));
#124=CARTESIAN_POINT('',(-10.9637582858252,0.,-1.77635683940025E-15));
#125=CARTESIAN_POINT('',(4.69901282203287E-15,4.44089209850063E-16,-5.9955));
#126=CARTESIAN_POINT('',(-10.9637582858252,4.44089209850063E-16,-1.77635683940025E-15));
#127=MECHANICAL_DESIGN_GEOMETRIC_PRESENTATION_REPRESENTATION('',(#60,#61,
#62,#63,#64,#65,#66,#67),#128);
#128=(
GEOMETRIC_REPRESENTATION_CONTEXT(3)
GLOBAL_UNCERTAINTY_ASSIGNED_CONTEXT((#129))
GLOBAL_UNIT_ASSIGNED_CONTEXT((#135,#131,#130))
REPRESENTATION_CONTEXT('1588578040468','TOP_LEVEL_ASSEMBLY_PART')
);
#129=UNCERTAINTY_MEASURE_WITH_UNIT(LENGTH_MEASURE(2.E-5),#135,
'DISTANCE_ACCURACY_VALUE','Maximum Tolerance applied to model');
#130=(
NAMED_UNIT(*)
SI_UNIT($,.STERADIAN.)
SOLID_ANGLE_UNIT()
);
#131=(
CONVERSION_BASED_UNIT('DEGREE',#133)
NAMED_UNIT(#132)
PLANE_ANGLE_UNIT()
);
#132=DIMENSIONAL_EXPONENTS(0.,0.,0.,0.,0.,0.,0.);
#133=PLANE_ANGLE_MEASURE_WITH_UNIT(PLANE_ANGLE_MEASURE(0.0174532925),#134);
#134=(
NAMED_UNIT(*)
PLANE_ANGLE_UNIT()
SI_UNIT($,.RADIAN.)
);
#135=(
LENGTH_UNIT()
NAMED_UNIT(*)
SI_UNIT(.MILLI.,.METRE.)
);
ENDSEC;
END-ISO-10303-21;
