ISO-10303-21;
HEADER;
/* Generated by software containing ST-Developer
 * from STEP Tools, Inc. (www.steptools.com) 
 */
/* OPTION: using custom schema-name function */

FILE_DESCRIPTION(
/* description */ (''),
/* implementation_level */ '2;1');

FILE_NAME(
/* name */ '1588578002424.stp',
/* time_stamp */ '2020-05-04T13:10:17+06:00',
/* author */ (''),
/* organization */ ('SMS'),
/* preprocessor_version */ 'ST-DEVELOPER v16.7',
/* originating_system */ 'SIEMENS PLM Software NX 12.0',
/* authorisation */ '');

FILE_SCHEMA (('AUTOMOTIVE_DESIGN { 1 0 10303 214 3 1 1 1 }'));
ENDSEC;

DATA;
#10=CONSTRUCTIVE_GEOMETRY_REPRESENTATION_RELATIONSHIP(
'supplemental geometry','',#26,#11);
#11=CONSTRUCTIVE_GEOMETRY_REPRESENTATION('supplemental geometry',(#90,#91,
#92),#156);
#12=GEOMETRICALLY_BOUNDED_WIREFRAME_SHAPE_REPRESENTATION(
'202908312mod000_00-None',(#27),#156);
#13=SHAPE_REPRESENTATION_RELATIONSHIP('None',
'relationship between 202908312mod000_00-None and 202908312mod000_00-N
one',#26,#15);
#14=SHAPE_REPRESENTATION_RELATIONSHIP('None',
'relationship between 202908312mod000_00-None and 202908312mod000_00-N
one',#26,#12);
#15=ADVANCED_BREP_SHAPE_REPRESENTATION('202908312mod000_00-None',(#33),
#156);
#16=SHAPE_DEFINITION_REPRESENTATION(#17,#26);
#17=PRODUCT_DEFINITION_SHAPE('','',#18);
#18=PRODUCT_DEFINITION(' ','',#20,#19);
#19=PRODUCT_DEFINITION_CONTEXT('part definition',#25,'design');
#20=PRODUCT_DEFINITION_FORMATION_WITH_SPECIFIED_SOURCE(' ',' ',#22,
 .NOT_KNOWN.);
#21=PRODUCT_RELATED_PRODUCT_CATEGORY('part','',(#22));
#22=PRODUCT('202908312mod000_00','202908312mod000_00',' ',(#23));
#23=PRODUCT_CONTEXT(' ',#25,'mechanical');
#24=APPLICATION_PROTOCOL_DEFINITION('international standard',
'automotive_design',2010,#25);
#25=APPLICATION_CONTEXT(
'core data for automotive mechanical design processes');
#26=SHAPE_REPRESENTATION('202908312mod000_00-None',(#89),#156);
#27=GEOMETRIC_CURVE_SET('None',(#109,#110,#111,#62));
#28=SURFACE_STYLE_USAGE(.BOTH.,#29);
#29=SURFACE_SIDE_STYLE('',(#30));
#30=SURFACE_STYLE_FILL_AREA(#31);
#31=FILL_AREA_STYLE('',(#32));
#32=FILL_AREA_STYLE_COLOUR('',#88);
#33=MANIFOLD_SOLID_BREP('CUT',#34);
#34=CLOSED_SHELL('',(#37,#38));
#35=PLANE('',#94);
#36=FACE_OUTER_BOUND('',#46,.T.);
#37=ADVANCED_FACE('',(#43,#44),#39,.F.);
#38=ADVANCED_FACE('',(#36),#35,.T.);
#39=SURFACE_OF_REVOLUTION('',#41,#40);
#40=AXIS1_PLACEMENT('',#153,#105);
#41=B_SPLINE_CURVE_WITH_KNOTS('',3,(#134,#135,#136,#137,#138,#139,#140,
#141,#142,#143,#144,#145,#146,#147,#148,#149,#150,#151,#152),
 .UNSPECIFIED.,.F.,.F.,(4,1,1,1,1,1,1,1,1,1,1,1,1,1,1,1,4),(0.,0.0624999999999999,
0.125,0.1875,0.25,0.3125,0.375,0.4375,0.5,0.5625,0.625,0.6875,0.75,0.8125,
0.875,0.9375,1.),.UNSPECIFIED.);
#42=VERTEX_LOOP('',#50);
#43=FACE_BOUND('',#45,.T.);
#44=FACE_BOUND('',#42,.T.);
#45=EDGE_LOOP('',(#47));
#46=EDGE_LOOP('',(#48));
#47=ORIENTED_EDGE('',*,*,#51,.T.);
#48=ORIENTED_EDGE('',*,*,#51,.F.);
#49=VERTEX_POINT('',#132);
#50=VERTEX_POINT('',#133);
#51=EDGE_CURVE('',#49,#49,#52,.T.);
#52=CIRCLE('',#93,2.64537161850656);
#53=CURVE_STYLE('',#58,POSITIVE_LENGTH_MEASURE(0.18),#57);
#54=CURVE_STYLE('',#59,POSITIVE_LENGTH_MEASURE(0.18),#87);
#55=CURVE_STYLE('',#60,POSITIVE_LENGTH_MEASURE(0.18),#87);
#56=CURVE_STYLE('',#61,POSITIVE_LENGTH_MEASURE(0.18),#87);
#57=DRAUGHTING_PRE_DEFINED_COLOUR('blue');
#58=DRAUGHTING_PRE_DEFINED_CURVE_FONT('continuous');
#59=DRAUGHTING_PRE_DEFINED_CURVE_FONT('continuous');
#60=DRAUGHTING_PRE_DEFINED_CURVE_FONT('continuous');
#61=DRAUGHTING_PRE_DEFINED_CURVE_FONT('continuous');
#62=TRIMMED_CURVE('CUTTING EDGE LINE',#63,(PARAMETER_VALUE(0.)),(
PARAMETER_VALUE(1.)),.T.,.PARAMETER.);
#63=(
BOUNDED_CURVE()
B_SPLINE_CURVE(4,(#112,#113,#114,#115,#116,#117,#118,#119,#120,#121,#122,
#123,#124,#125,#126,#127),.UNSPECIFIED.,.T.,.F.)
B_SPLINE_CURVE_WITH_KNOTS((5,3,4,4,5),(0.,0.250341520340424,0.500683040680849,
0.637755267148616,1.),.UNSPECIFIED.)
CURVE()
GEOMETRIC_REPRESENTATION_ITEM()
RATIONAL_B_SPLINE_CURVE((0.548615003879166,0.548615003879166,0.537127075985786,
0.548615003879166,0.548615003879166,0.537127075985786,0.548615003879166,
0.548615003879166,0.548615003879166,0.548615003879166,0.548615003879166,
0.548615003879166,0.548615003879166,0.548615003879166,0.548615003879166,
0.548615003879166))
REPRESENTATION_ITEM('CUTTING EDGE LINE')
);
#64=PRESENTATION_LAYER_ASSIGNMENT('1','Layer 1',(#109,#110,#111,#62,#90,
#91,#92,#33));
#65=STYLED_ITEM('',(#73),#109);
#66=STYLED_ITEM('',(#74),#110);
#67=STYLED_ITEM('',(#75),#111);
#68=STYLED_ITEM('',(#76),#62);
#69=STYLED_ITEM('',(#77),#90);
#70=STYLED_ITEM('',(#78),#91);
#71=STYLED_ITEM('',(#79),#92);
#72=STYLED_ITEM('',(#80),#33);
#73=PRESENTATION_STYLE_ASSIGNMENT((#81));
#74=PRESENTATION_STYLE_ASSIGNMENT((#82));
#75=PRESENTATION_STYLE_ASSIGNMENT((#83));
#76=PRESENTATION_STYLE_ASSIGNMENT((#53));
#77=PRESENTATION_STYLE_ASSIGNMENT((#54));
#78=PRESENTATION_STYLE_ASSIGNMENT((#55));
#79=PRESENTATION_STYLE_ASSIGNMENT((#56));
#80=PRESENTATION_STYLE_ASSIGNMENT((#28));
#81=POINT_STYLE('',#84,POSITIVE_LENGTH_MEASURE(3.),#87);
#82=POINT_STYLE('',#85,POSITIVE_LENGTH_MEASURE(3.),#87);
#83=POINT_STYLE('',#86,POSITIVE_LENGTH_MEASURE(3.),#87);
#84=PRE_DEFINED_POINT_MARKER_SYMBOL('plus');
#85=PRE_DEFINED_POINT_MARKER_SYMBOL('plus');
#86=PRE_DEFINED_POINT_MARKER_SYMBOL('plus');
#87=COLOUR_RGB('Medium Maroon',0.6,0.4,0.4);
#88=COLOUR_RGB('Light Gray',0.8,0.8,0.8);
#89=AXIS2_PLACEMENT_3D('',#108,#95,#96);
#90=AXIS2_PLACEMENT_3D('PCS',#128,#97,#98);
#91=AXIS2_PLACEMENT_3D('MCS',#129,#99,#100);
#92=AXIS2_PLACEMENT_3D('CIP',#130,#101,#102);
#93=AXIS2_PLACEMENT_3D('',#131,#103,#104);
#94=AXIS2_PLACEMENT_3D('',#154,#106,#107);
#95=DIRECTION('',(0.,0.,1.));
#96=DIRECTION('',(1.,0.,0.));
#97=DIRECTION('',(0.,0.,1.));
#98=DIRECTION('',(1.,0.,0.));
#99=DIRECTION('',(0.,0.,1.));
#100=DIRECTION('',(1.,0.,0.));
#101=DIRECTION('',(0.,0.,1.));
#102=DIRECTION('',(1.,0.,0.));
#103=DIRECTION('',(0.,0.,-1.));
#104=DIRECTION('',(-1.,0.,0.));
#105=DIRECTION('',(0.,0.,-1.));
#106=DIRECTION('',(0.,0.,1.));
#107=DIRECTION('',(1.,0.,0.));
#108=CARTESIAN_POINT('',(0.,0.,0.));
#109=CARTESIAN_POINT('',(0.,0.,0.));
#110=CARTESIAN_POINT('MCS',(0.,0.,0.));
#111=CARTESIAN_POINT('',(0.,0.,-6.995));
#112=CARTESIAN_POINT('',(-2.44684430469641E-16,0.,-6.991));
#113=CARTESIAN_POINT('',(-1.13560674478209,0.,-6.991));
#114=CARTESIAN_POINT('',(-2.45683357152706,0.,-6.5514990489374));
#115=CARTESIAN_POINT('',(-3.33548185511648,0.,-5.4713237819363));
#116=CARTESIAN_POINT('',(-4.13928048224248,0.,-3.34710192859597));
#117=CARTESIAN_POINT('',(-4.1958153633704,0.,-1.95584162911518));
#118=CARTESIAN_POINT('',(-3.49650830534899,0.,-0.751777240348134));
#119=CARTESIAN_POINT('',(-2.64537161850656,0.,1.33226762955019E-15));
#120=CARTESIAN_POINT('',(-1.98402871387992,0.,1.33226762955019E-15));
#121=CARTESIAN_POINT('',(-1.32268580925328,0.,1.33226762955019E-15));
#122=CARTESIAN_POINT('',(-0.661342904626639,0.,1.33226762955019E-15));
#123=CARTESIAN_POINT('',(0.,0.,6.66133814775094E-16));
#124=CARTESIAN_POINT('',(0.,0.,-1.74775));
#125=CARTESIAN_POINT('',(0.,0.,-3.4955));
#126=CARTESIAN_POINT('',(0.,0.,-5.24325));
#127=CARTESIAN_POINT('',(0.,0.,-6.991));
#128=CARTESIAN_POINT('',(0.,0.,0.));
#129=CARTESIAN_POINT('',(0.,0.,0.));
#130=CARTESIAN_POINT('',(0.,0.,-6.995));
#131=CARTESIAN_POINT('',(0.,0.,1.33226762955019E-15));
#132=CARTESIAN_POINT('',(-2.64537161850656,0.,1.33226762955019E-15));
#133=CARTESIAN_POINT('',(-1.77635683940025E-15,0.,-6.991));
#134=CARTESIAN_POINT('',(-1.77635683940025E-15,0.,-6.991));
#135=CARTESIAN_POINT('',(-0.201306995197375,0.,-6.991));
#136=CARTESIAN_POINT('',(-0.603919217561338,0.,-6.96051815696227));
#137=CARTESIAN_POINT('',(-1.19407077552536,0.,-6.8243927342775));
#138=CARTESIAN_POINT('',(-1.75700072420139,0.,-6.60096743324348));
#139=CARTESIAN_POINT('',(-2.27987599907286,0.,-6.29533621912526));
#140=CARTESIAN_POINT('',(-2.75077621929175,0.,-5.9144661953278));
#141=CARTESIAN_POINT('',(-3.1589664796715,0.,-5.46704055598971));
#142=CARTESIAN_POINT('',(-3.49514078163101,0.,-4.96325902535674));
#143=CARTESIAN_POINT('',(-3.75163570647551,0.,-4.41460672590941));
#144=CARTESIAN_POINT('',(-3.92260340454383,0.,-3.83359120260244));
#145=CARTESIAN_POINT('',(-4.00414678012264,0.,-3.23345815895556));
#146=CARTESIAN_POINT('',(-3.99440635406899,0.,-2.62788890921138));
#147=CARTESIAN_POINT('',(-3.89360470027009,0.,-2.03068875960437));
#148=CARTESIAN_POINT('',(-3.70403930764067,0.,-1.45547231858485));
#149=CARTESIAN_POINT('',(-3.43003223906289,0.,-0.915352777679693));
#150=CARTESIAN_POINT('',(-3.07782963981048,0.,-0.422643612816996));
#151=CARTESIAN_POINT('',(-2.79625111065274,0.,-0.133266219144635));
#152=CARTESIAN_POINT('',(-2.64537161850656,0.,1.33226762955019E-15));
#153=CARTESIAN_POINT('',(0.,0.,0.));
#154=CARTESIAN_POINT('',(-2.64537161850656,0.,2.44249065417534E-15));
#155=MECHANICAL_DESIGN_GEOMETRIC_PRESENTATION_REPRESENTATION('',(#65,#66,
#67,#68,#69,#70,#71,#72),#156);
#156=(
GEOMETRIC_REPRESENTATION_CONTEXT(3)
GLOBAL_UNCERTAINTY_ASSIGNED_CONTEXT((#157))
GLOBAL_UNIT_ASSIGNED_CONTEXT((#163,#159,#158))
REPRESENTATION_CONTEXT('1588578002424','TOP_LEVEL_ASSEMBLY_PART')
);
#157=UNCERTAINTY_MEASURE_WITH_UNIT(LENGTH_MEASURE(0.0508),#163,
'DISTANCE_ACCURACY_VALUE','Maximum Tolerance applied to model');
#158=(
NAMED_UNIT(*)
SI_UNIT($,.STERADIAN.)
SOLID_ANGLE_UNIT()
);
#159=(
CONVERSION_BASED_UNIT('DEGREE',#161)
NAMED_UNIT(#160)
PLANE_ANGLE_UNIT()
);
#160=DIMENSIONAL_EXPONENTS(0.,0.,0.,0.,0.,0.,0.);
#161=PLANE_ANGLE_MEASURE_WITH_UNIT(PLANE_ANGLE_MEASURE(0.0174532925),#162);
#162=(
NAMED_UNIT(*)
PLANE_ANGLE_UNIT()
SI_UNIT($,.RADIAN.)
);
#163=(
LENGTH_UNIT()
NAMED_UNIT(*)
SI_UNIT(.MILLI.,.METRE.)
);
ENDSEC;
END-ISO-10303-21;
