ISO-10303-21;
HEADER;
/* Generated by software containing ST-Developer
 * from STEP Tools, Inc. (www.steptools.com) 
 */
/* OPTION: using custom schema-name function */

FILE_DESCRIPTION(
/* description */ (''),
/* implementation_level */ '2;1');

FILE_NAME(
/* name */ '1588577921438.stp',
/* time_stamp */ '2020-05-04T13:08:54+06:00',
/* author */ (''),
/* organization */ ('SMS'),
/* preprocessor_version */ 'ST-DEVELOPER v16.7',
/* originating_system */ 'SIEMENS PLM Software NX 12.0',
/* authorisation */ '');

FILE_SCHEMA (('AUTOMOTIVE_DESIGN { 1 0 10303 214 3 1 1 1 }'));
ENDSEC;

DATA;
#10=CONSTRUCTIVE_GEOMETRY_REPRESENTATION_RELATIONSHIP(
'supplemental geometry','',#26,#11);
#11=CONSTRUCTIVE_GEOMETRY_REPRESENTATION('supplemental geometry',(#85,#86,
#87),#137);
#12=GEOMETRICALLY_BOUNDED_WIREFRAME_SHAPE_REPRESENTATION(
'202908244mod000_00-None',(#27),#137);
#13=SHAPE_REPRESENTATION_RELATIONSHIP('None',
'relationship between 202908244mod000_00-None and 202908244mod000_00-N
one',#26,#15);
#14=SHAPE_REPRESENTATION_RELATIONSHIP('None',
'relationship between 202908244mod000_00-None and 202908244mod000_00-N
one',#26,#12);
#15=ADVANCED_BREP_SHAPE_REPRESENTATION('202908244mod000_00-None',(#33),
#137);
#16=SHAPE_DEFINITION_REPRESENTATION(#17,#26);
#17=PRODUCT_DEFINITION_SHAPE('','',#18);
#18=PRODUCT_DEFINITION(' ','',#20,#19);
#19=PRODUCT_DEFINITION_CONTEXT('part definition',#25,'design');
#20=PRODUCT_DEFINITION_FORMATION_WITH_SPECIFIED_SOURCE(' ',' ',#22,
 .NOT_KNOWN.);
#21=PRODUCT_RELATED_PRODUCT_CATEGORY('part','',(#22));
#22=PRODUCT('202908244mod000_00','202908244mod000_00',' ',(#23));
#23=PRODUCT_CONTEXT(' ',#25,'mechanical');
#24=APPLICATION_PROTOCOL_DEFINITION('international standard',
'automotive_design',2010,#25);
#25=APPLICATION_CONTEXT(
'core data for automotive mechanical design processes');
#26=SHAPE_REPRESENTATION('202908244mod000_00-None',(#84),#137);
#27=GEOMETRIC_CURVE_SET('None',(#106,#107,#108,#57));
#28=SURFACE_STYLE_USAGE(.BOTH.,#29);
#29=SURFACE_SIDE_STYLE('',(#30));
#30=SURFACE_STYLE_FILL_AREA(#31);
#31=FILL_AREA_STYLE('',(#32));
#32=FILL_AREA_STYLE_COLOUR('',#83);
#33=MANIFOLD_SOLID_BREP('CUT',#34);
#34=CLOSED_SHELL('',(#36,#37));
#35=PLANE('',#90);
#36=ADVANCED_FACE('',(#39),#38,.T.);
#37=ADVANCED_FACE('',(#40),#35,.T.);
#38=SPHERICAL_SURFACE('',#89,4.996);
#39=FACE_OUTER_BOUND('',#41,.T.);
#40=FACE_OUTER_BOUND('',#42,.T.);
#41=EDGE_LOOP('',(#43));
#42=EDGE_LOOP('',(#44));
#43=ORIENTED_EDGE('',*,*,#46,.T.);
#44=ORIENTED_EDGE('',*,*,#46,.F.);
#45=VERTEX_POINT('',#133);
#46=EDGE_CURVE('',#45,#45,#47,.T.);
#47=CIRCLE('',#88,3.57001274507526);
#48=CURVE_STYLE('',#53,POSITIVE_LENGTH_MEASURE(0.18),#52);
#49=CURVE_STYLE('',#54,POSITIVE_LENGTH_MEASURE(0.18),#82);
#50=CURVE_STYLE('',#55,POSITIVE_LENGTH_MEASURE(0.18),#82);
#51=CURVE_STYLE('',#56,POSITIVE_LENGTH_MEASURE(0.18),#82);
#52=DRAUGHTING_PRE_DEFINED_COLOUR('blue');
#53=DRAUGHTING_PRE_DEFINED_CURVE_FONT('continuous');
#54=DRAUGHTING_PRE_DEFINED_CURVE_FONT('continuous');
#55=DRAUGHTING_PRE_DEFINED_CURVE_FONT('continuous');
#56=DRAUGHTING_PRE_DEFINED_CURVE_FONT('continuous');
#57=TRIMMED_CURVE('CUTTING EDGE LINE',#58,(PARAMETER_VALUE(0.)),(
PARAMETER_VALUE(1.)),.T.,.PARAMETER.);
#58=(
BOUNDED_CURVE()
B_SPLINE_CURVE(4,(#109,#110,#111,#112,#113,#114,#115,#116,#117,#118,#119,
#120,#121,#122,#123,#124,#125,#126,#127,#128),.UNSPECIFIED.,.T.,.F.)
B_SPLINE_CURVE_WITH_KNOTS((5,4,4,3,4,5),(0.,0.150129739173131,0.184658891795158,
0.413793442477226,0.642927993159295,1.),.UNSPECIFIED.)
CURVE()
GEOMETRIC_REPRESENTATION_ITEM()
RATIONAL_B_SPLINE_CURVE((1.,1.,1.,1.,1.,0.998312791820137,0.997750389093516,
0.998312791820137,1.,1.,0.985977149606523,1.,1.,0.985977149606523,1.,1.,
1.,1.,1.,1.))
REPRESENTATION_ITEM('CUTTING EDGE LINE')
);
#59=PRESENTATION_LAYER_ASSIGNMENT('1','Layer 1',(#106,#107,#108,#57,#85,
#86,#87,#33));
#60=STYLED_ITEM('',(#68),#106);
#61=STYLED_ITEM('',(#69),#107);
#62=STYLED_ITEM('',(#70),#108);
#63=STYLED_ITEM('',(#71),#57);
#64=STYLED_ITEM('',(#72),#85);
#65=STYLED_ITEM('',(#73),#86);
#66=STYLED_ITEM('',(#74),#87);
#67=STYLED_ITEM('',(#75),#33);
#68=PRESENTATION_STYLE_ASSIGNMENT((#76));
#69=PRESENTATION_STYLE_ASSIGNMENT((#77));
#70=PRESENTATION_STYLE_ASSIGNMENT((#78));
#71=PRESENTATION_STYLE_ASSIGNMENT((#48));
#72=PRESENTATION_STYLE_ASSIGNMENT((#49));
#73=PRESENTATION_STYLE_ASSIGNMENT((#50));
#74=PRESENTATION_STYLE_ASSIGNMENT((#51));
#75=PRESENTATION_STYLE_ASSIGNMENT((#28));
#76=POINT_STYLE('',#79,POSITIVE_LENGTH_MEASURE(3.),#82);
#77=POINT_STYLE('',#80,POSITIVE_LENGTH_MEASURE(3.),#82);
#78=POINT_STYLE('',#81,POSITIVE_LENGTH_MEASURE(3.),#82);
#79=PRE_DEFINED_POINT_MARKER_SYMBOL('plus');
#80=PRE_DEFINED_POINT_MARKER_SYMBOL('plus');
#81=PRE_DEFINED_POINT_MARKER_SYMBOL('plus');
#82=COLOUR_RGB('Medium Maroon',0.6,0.4,0.4);
#83=COLOUR_RGB('Light Gray',0.8,0.8,0.8);
#84=AXIS2_PLACEMENT_3D('',#105,#91,#92);
#85=AXIS2_PLACEMENT_3D('PCS',#129,#93,#94);
#86=AXIS2_PLACEMENT_3D('MCS',#130,#95,#96);
#87=AXIS2_PLACEMENT_3D('CIP',#131,#97,#98);
#88=AXIS2_PLACEMENT_3D('',#132,#99,#100);
#89=AXIS2_PLACEMENT_3D('',#134,#101,#102);
#90=AXIS2_PLACEMENT_3D('',#135,#103,#104);
#91=DIRECTION('',(0.,0.,1.));
#92=DIRECTION('',(1.,0.,0.));
#93=DIRECTION('',(0.,0.,1.));
#94=DIRECTION('',(1.,0.,0.));
#95=DIRECTION('',(0.,0.,1.));
#96=DIRECTION('',(1.,0.,0.));
#97=DIRECTION('',(0.,0.,1.));
#98=DIRECTION('',(1.,0.,0.));
#99=DIRECTION('',(0.,0.,-1.));
#100=DIRECTION('',(-1.,0.,0.));
#101=DIRECTION('',(-6.12323399573677E-17,0.,-1.));
#102=DIRECTION('',(-1.,0.,0.));
#103=DIRECTION('',(0.,0.,1.));
#104=DIRECTION('',(1.,0.,0.));
#105=CARTESIAN_POINT('',(0.,0.,0.));
#106=CARTESIAN_POINT('',(0.,0.,0.));
#107=CARTESIAN_POINT('',(0.,0.,0.));
#108=CARTESIAN_POINT('',(2.76463466041476E-14,0.,-8.495));
#109=CARTESIAN_POINT('',(4.44089209850063E-16,-4.44089209850063E-16,0.));
#110=CARTESIAN_POINT('',(-0.892503186268816,-4.44089209850063E-16,0.));
#111=CARTESIAN_POINT('',(-1.78500637253763,-4.44089209850063E-16,0.));
#112=CARTESIAN_POINT('',(-2.67750955880645,-4.44089209850063E-16,0.));
#113=CARTESIAN_POINT('',(-3.57001274507526,-4.44089209850063E-16,4.44089209850063E-16));
#114=CARTESIAN_POINT('',(-3.71369336668825,-4.44089209850063E-16,-0.146764420709215));
#115=CARTESIAN_POINT('',(-3.84917689122106,-4.44089209850063E-16,-0.301230768018443));
#116=CARTESIAN_POINT('',(-3.97599151461111,-4.44089209850063E-16,-0.462889943957597));
#117=CARTESIAN_POINT('',(-4.0937239377727,-4.44089209850063E-16,-0.631184307378255));
#118=CARTESIAN_POINT('',(-4.83642692723683,-4.44089209850063E-16,-1.69285214250747));
#119=CARTESIAN_POINT('',(-5.30075530450616,-4.44089209850063E-16,-3.14929879313675));
#120=CARTESIAN_POINT('',(-5.02952665187115,-4.44089209850063E-16,-4.65371652303951));
#121=CARTESIAN_POINT('',(-3.83248657315212,-4.44089209850063E-16,-6.95199421307814));
#122=CARTESIAN_POINT('',(-2.75524037586774,-4.44089209850063E-16,-8.03660396708754));
#123=CARTESIAN_POINT('',(-1.29566443288656,-4.44089209850063E-16,-8.49099999999999));
#124=CARTESIAN_POINT('',(-1.50034605096482E-15,-4.44089209850063E-16,-8.491));
#125=CARTESIAN_POINT('',(1.0842021724855E-16,-4.44089209850063E-16,-6.36825));
#126=CARTESIAN_POINT('',(1.0842021724855E-16,-4.44089209850063E-16,-4.2455));
#127=CARTESIAN_POINT('',(1.0842021724855E-16,-4.44089209850063E-16,-2.12275));
#128=CARTESIAN_POINT('',(1.0842021724855E-16,-4.44089209850063E-16,0.));
#129=CARTESIAN_POINT('',(0.,0.,0.));
#130=CARTESIAN_POINT('',(0.,0.,0.));
#131=CARTESIAN_POINT('',(2.76463466041476E-14,0.,-8.495));
#132=CARTESIAN_POINT('',(0.,0.,4.44089209850063E-16));
#133=CARTESIAN_POINT('',(-3.57001274507526,0.,4.44089209850063E-16));
#134=CARTESIAN_POINT('',(2.92705178359615E-14,-4.44089209850063E-16,-3.495));
#135=CARTESIAN_POINT('',(-3.57001274507526,-4.44089209850063E-16,2.22044604925031E-16));
#136=MECHANICAL_DESIGN_GEOMETRIC_PRESENTATION_REPRESENTATION('',(#60,#61,
#62,#63,#64,#65,#66,#67),#137);
#137=(
GEOMETRIC_REPRESENTATION_CONTEXT(3)
GLOBAL_UNCERTAINTY_ASSIGNED_CONTEXT((#138))
GLOBAL_UNIT_ASSIGNED_CONTEXT((#144,#140,#139))
REPRESENTATION_CONTEXT('1588577921438','TOP_LEVEL_ASSEMBLY_PART')
);
#138=UNCERTAINTY_MEASURE_WITH_UNIT(LENGTH_MEASURE(2.E-5),#144,
'DISTANCE_ACCURACY_VALUE','Maximum Tolerance applied to model');
#139=(
NAMED_UNIT(*)
SI_UNIT($,.STERADIAN.)
SOLID_ANGLE_UNIT()
);
#140=(
CONVERSION_BASED_UNIT('DEGREE',#142)
NAMED_UNIT(#141)
PLANE_ANGLE_UNIT()
);
#141=DIMENSIONAL_EXPONENTS(0.,0.,0.,0.,0.,0.,0.);
#142=PLANE_ANGLE_MEASURE_WITH_UNIT(PLANE_ANGLE_MEASURE(0.0174532925),#143);
#143=(
NAMED_UNIT(*)
PLANE_ANGLE_UNIT()
SI_UNIT($,.RADIAN.)
);
#144=(
LENGTH_UNIT()
NAMED_UNIT(*)
SI_UNIT(.MILLI.,.METRE.)
);
ENDSEC;
END-ISO-10303-21;
