ISO-10303-21;
HEADER;
/* Generated by software containing ST-Developer
 * from STEP Tools, Inc. (www.steptools.com) 
 */
/* OPTION: using custom schema-name function */

FILE_DESCRIPTION(
/* description */ (''),
/* implementation_level */ '2;1');

FILE_NAME(
/* name */ '1583316489401.stp',
/* time_stamp */ '2020-03-04T11:08:16+01:00',
/* author */ (''),
/* organization */ ('SMS'),
/* preprocessor_version */ 'ST-DEVELOPER v16.7',
/* originating_system */ 'SIEMENS PLM Software NX 12.0',
/* authorisation */ '');

FILE_SCHEMA (('AUTOMOTIVE_DESIGN { 1 0 10303 214 3 1 1 1 }'));
ENDSEC;

DATA;
#10=CONSTRUCTIVE_GEOMETRY_REPRESENTATION_RELATIONSHIP(
'supplemental geometry','',#26,#11);
#11=CONSTRUCTIVE_GEOMETRY_REPRESENTATION('supplemental geometry',(#156,
#157,#158),#251);
#12=GEOMETRICALLY_BOUNDED_WIREFRAME_SHAPE_REPRESENTATION(
'202891536mod000_00-None',(#27),#251);
#13=SHAPE_REPRESENTATION_RELATIONSHIP('None',
'relationship between 202891536mod000_00-None and 202891536mod000_00-N
one',#26,#15);
#14=SHAPE_REPRESENTATION_RELATIONSHIP('None',
'relationship between 202891536mod000_00-None and 202891536mod000_00-N
one',#26,#12);
#15=ADVANCED_BREP_SHAPE_REPRESENTATION('202891536mod000_00-None',(#39,#40),
#251);
#16=SHAPE_DEFINITION_REPRESENTATION(#17,#26);
#17=PRODUCT_DEFINITION_SHAPE('','',#18);
#18=PRODUCT_DEFINITION(' ','',#20,#19);
#19=PRODUCT_DEFINITION_CONTEXT('part definition',#25,'design');
#20=PRODUCT_DEFINITION_FORMATION_WITH_SPECIFIED_SOURCE(' ',' ',#22,
 .NOT_KNOWN.);
#21=PRODUCT_RELATED_PRODUCT_CATEGORY('part','',(#22));
#22=PRODUCT('202891536mod000_00','202891536mod000_00',' ',(#23));
#23=PRODUCT_CONTEXT(' ',#25,'mechanical');
#24=APPLICATION_PROTOCOL_DEFINITION('international standard',
'automotive_design',2010,#25);
#25=APPLICATION_CONTEXT(
'core data for automotive mechanical design processes');
#26=SHAPE_REPRESENTATION('202891536mod000_00-None',(#155),#251);
#27=GEOMETRIC_CURVE_SET('None',(#210,#211,#212,#213,#120));
#28=TOROIDAL_SURFACE('',#172,4.85,0.15);
#29=SURFACE_STYLE_USAGE(.BOTH.,#31);
#30=SURFACE_STYLE_USAGE(.BOTH.,#32);
#31=SURFACE_SIDE_STYLE('',(#33));
#32=SURFACE_SIDE_STYLE('',(#34));
#33=SURFACE_STYLE_FILL_AREA(#35);
#34=SURFACE_STYLE_FILL_AREA(#36);
#35=FILL_AREA_STYLE('',(#37));
#36=FILL_AREA_STYLE('',(#38));
#37=FILL_AREA_STYLE_COLOUR('',#153);
#38=FILL_AREA_STYLE_COLOUR('',#154);
#39=MANIFOLD_SOLID_BREP('NOCUT',#41);
#40=MANIFOLD_SOLID_BREP('CUT',#42);
#41=CLOSED_SHELL('',(#54,#55,#56,#57));
#42=CLOSED_SHELL('',(#58,#59,#60,#61));
#43=CONICAL_SURFACE('',#165,4.5,45.);
#44=CYLINDRICAL_SURFACE('',#162,5.);
#45=CYLINDRICAL_SURFACE('',#171,5.);
#46=FACE_BOUND('',#71,.T.);
#47=FACE_BOUND('',#72,.T.);
#48=FACE_BOUND('',#74,.T.);
#49=FACE_BOUND('',#75,.T.);
#50=FACE_BOUND('',#78,.T.);
#51=FACE_BOUND('',#79,.T.);
#52=FACE_BOUND('',#80,.T.);
#53=FACE_BOUND('',#81,.T.);
#54=ADVANCED_FACE('',(#66),#62,.F.);
#55=ADVANCED_FACE('',(#46,#47),#44,.T.);
#56=ADVANCED_FACE('',(#67),#63,.T.);
#57=ADVANCED_FACE('',(#48,#49),#43,.T.);
#58=ADVANCED_FACE('',(#68),#64,.T.);
#59=ADVANCED_FACE('',(#69),#65,.T.);
#60=ADVANCED_FACE('',(#50,#51),#45,.T.);
#61=ADVANCED_FACE('',(#52,#53),#28,.T.);
#62=PLANE('',#160);
#63=PLANE('',#164);
#64=PLANE('',#167);
#65=PLANE('',#169);
#66=FACE_OUTER_BOUND('',#70,.T.);
#67=FACE_OUTER_BOUND('',#73,.T.);
#68=FACE_OUTER_BOUND('',#76,.T.);
#69=FACE_OUTER_BOUND('',#77,.T.);
#70=EDGE_LOOP('',(#82));
#71=EDGE_LOOP('',(#83));
#72=EDGE_LOOP('',(#84));
#73=EDGE_LOOP('',(#85));
#74=EDGE_LOOP('',(#86));
#75=EDGE_LOOP('',(#87));
#76=EDGE_LOOP('',(#88));
#77=EDGE_LOOP('',(#89));
#78=EDGE_LOOP('',(#90));
#79=EDGE_LOOP('',(#91));
#80=EDGE_LOOP('',(#92));
#81=EDGE_LOOP('',(#93));
#82=ORIENTED_EDGE('',*,*,#100,.T.);
#83=ORIENTED_EDGE('',*,*,#101,.T.);
#84=ORIENTED_EDGE('',*,*,#100,.F.);
#85=ORIENTED_EDGE('',*,*,#102,.T.);
#86=ORIENTED_EDGE('',*,*,#101,.F.);
#87=ORIENTED_EDGE('',*,*,#102,.F.);
#88=ORIENTED_EDGE('',*,*,#103,.T.);
#89=ORIENTED_EDGE('',*,*,#104,.T.);
#90=ORIENTED_EDGE('',*,*,#105,.T.);
#91=ORIENTED_EDGE('',*,*,#104,.F.);
#92=ORIENTED_EDGE('',*,*,#103,.F.);
#93=ORIENTED_EDGE('',*,*,#105,.F.);
#94=VERTEX_POINT('',#231);
#95=VERTEX_POINT('',#234);
#96=VERTEX_POINT('',#237);
#97=VERTEX_POINT('',#241);
#98=VERTEX_POINT('',#244);
#99=VERTEX_POINT('',#247);
#100=EDGE_CURVE('',#94,#94,#106,.T.);
#101=EDGE_CURVE('',#95,#95,#107,.T.);
#102=EDGE_CURVE('',#96,#96,#108,.T.);
#103=EDGE_CURVE('',#97,#97,#109,.T.);
#104=EDGE_CURVE('',#98,#98,#110,.T.);
#105=EDGE_CURVE('',#99,#99,#111,.T.);
#106=CIRCLE('',#159,5.);
#107=CIRCLE('',#161,5.);
#108=CIRCLE('',#163,4.5);
#109=CIRCLE('',#166,4.85);
#110=CIRCLE('',#168,5.);
#111=CIRCLE('',#170,5.);
#112=CURVE_STYLE('',#116,POSITIVE_LENGTH_MEASURE(0.18),#122);
#113=CURVE_STYLE('',#117,POSITIVE_LENGTH_MEASURE(0.18),#152);
#114=CURVE_STYLE('',#118,POSITIVE_LENGTH_MEASURE(0.18),#152);
#115=CURVE_STYLE('',#119,POSITIVE_LENGTH_MEASURE(0.18),#152);
#116=DRAUGHTING_PRE_DEFINED_CURVE_FONT('continuous');
#117=DRAUGHTING_PRE_DEFINED_CURVE_FONT('continuous');
#118=DRAUGHTING_PRE_DEFINED_CURVE_FONT('continuous');
#119=DRAUGHTING_PRE_DEFINED_CURVE_FONT('continuous');
#120=TRIMMED_CURVE('CUTTING PART LINE',#121,(PARAMETER_VALUE(0.)),(
PARAMETER_VALUE(1.)),.T.,.PARAMETER.);
#121=(
BOUNDED_CURVE()
B_SPLINE_CURVE(3,(#214,#215,#216,#217,#218,#219,#220,#221,#222,#223,#224,
#225,#226),.UNSPECIFIED.,.F.,.F.)
B_SPLINE_CURVE_WITH_KNOTS((4,3,3,3,4),(0.,0.151868042130538,0.159245993554918,
0.843435008112751,1.),.UNSPECIFIED.)
CURVE()
GEOMETRIC_REPRESENTATION_ITEM()
RATIONAL_B_SPLINE_CURVE((1.,1.,1.,1.,0.804737854124365,0.804737854124365,
1.,1.,1.,1.,1.,1.,1.))
REPRESENTATION_ITEM('CUTTING PART LINE')
);
#122=DRAUGHTING_PRE_DEFINED_COLOUR('blue');
#123=PRESENTATION_LAYER_ASSIGNMENT('1','Layer 1',(#210,#211,#212,#213,#120,
#156,#157,#158,#39,#40));
#124=STYLED_ITEM('',(#134),#210);
#125=STYLED_ITEM('',(#135),#211);
#126=STYLED_ITEM('',(#136),#212);
#127=STYLED_ITEM('',(#137),#213);
#128=STYLED_ITEM('',(#138),#120);
#129=STYLED_ITEM('',(#139),#156);
#130=STYLED_ITEM('',(#140),#157);
#131=STYLED_ITEM('',(#141),#158);
#132=STYLED_ITEM('',(#142),#39);
#133=STYLED_ITEM('',(#143),#40);
#134=PRESENTATION_STYLE_ASSIGNMENT((#144));
#135=PRESENTATION_STYLE_ASSIGNMENT((#145));
#136=PRESENTATION_STYLE_ASSIGNMENT((#146));
#137=PRESENTATION_STYLE_ASSIGNMENT((#147));
#138=PRESENTATION_STYLE_ASSIGNMENT((#112));
#139=PRESENTATION_STYLE_ASSIGNMENT((#113));
#140=PRESENTATION_STYLE_ASSIGNMENT((#114));
#141=PRESENTATION_STYLE_ASSIGNMENT((#115));
#142=PRESENTATION_STYLE_ASSIGNMENT((#29));
#143=PRESENTATION_STYLE_ASSIGNMENT((#30));
#144=POINT_STYLE('',#148,POSITIVE_LENGTH_MEASURE(3.),#152);
#145=POINT_STYLE('',#149,POSITIVE_LENGTH_MEASURE(3.),#152);
#146=POINT_STYLE('',#150,POSITIVE_LENGTH_MEASURE(3.),#152);
#147=POINT_STYLE('',#151,POSITIVE_LENGTH_MEASURE(3.),#122);
#148=PRE_DEFINED_POINT_MARKER_SYMBOL('plus');
#149=PRE_DEFINED_POINT_MARKER_SYMBOL('plus');
#150=PRE_DEFINED_POINT_MARKER_SYMBOL('plus');
#151=PRE_DEFINED_POINT_MARKER_SYMBOL('plus');
#152=COLOUR_RGB('Strong Stone',0.576470588235294,0.54508278019379,0.392156862745098);
#153=COLOUR_RGB('Medium Gray',0.501960784313725,0.501960784313725,0.501960784313725);
#154=COLOUR_RGB('Light Gray',0.8,0.8,0.8);
#155=AXIS2_PLACEMENT_3D('',#209,#173,#174);
#156=AXIS2_PLACEMENT_3D('PCS',#227,#175,#176);
#157=AXIS2_PLACEMENT_3D('CIP',#228,#177,#178);
#158=AXIS2_PLACEMENT_3D('MCS',#229,#179,#180);
#159=AXIS2_PLACEMENT_3D('',#230,#181,#182);
#160=AXIS2_PLACEMENT_3D('',#232,#183,#184);
#161=AXIS2_PLACEMENT_3D('',#233,#185,#186);
#162=AXIS2_PLACEMENT_3D('',#235,#187,#188);
#163=AXIS2_PLACEMENT_3D('',#236,#189,#190);
#164=AXIS2_PLACEMENT_3D('',#238,#191,#192);
#165=AXIS2_PLACEMENT_3D('',#239,#193,#194);
#166=AXIS2_PLACEMENT_3D('',#240,#195,#196);
#167=AXIS2_PLACEMENT_3D('',#242,#197,#198);
#168=AXIS2_PLACEMENT_3D('',#243,#199,#200);
#169=AXIS2_PLACEMENT_3D('',#245,#201,#202);
#170=AXIS2_PLACEMENT_3D('',#246,#203,#204);
#171=AXIS2_PLACEMENT_3D('',#248,#205,#206);
#172=AXIS2_PLACEMENT_3D('',#249,#207,#208);
#173=DIRECTION('',(0.,0.,1.));
#174=DIRECTION('',(1.,0.,0.));
#175=DIRECTION('',(0.,0.,1.));
#176=DIRECTION('',(1.,0.,0.));
#177=DIRECTION('',(0.,0.,1.));
#178=DIRECTION('',(1.,0.,0.));
#179=DIRECTION('',(0.,0.,1.));
#180=DIRECTION('',(1.,0.,0.));
#181=DIRECTION('',(0.,0.,-1.));
#182=DIRECTION('',(1.,0.,0.));
#183=DIRECTION('',(0.,0.,1.));
#184=DIRECTION('',(1.,0.,0.));
#185=DIRECTION('',(0.,0.,-1.));
#186=DIRECTION('',(1.,0.,0.));
#187=DIRECTION('',(0.,0.,1.));
#188=DIRECTION('',(1.,0.,0.));
#189=DIRECTION('',(0.,0.,1.));
#190=DIRECTION('',(1.,0.,0.));
#191=DIRECTION('',(0.,0.,1.));
#192=DIRECTION('',(1.,0.,0.));
#193=DIRECTION('',(0.,0.,-1.));
#194=DIRECTION('',(-1.,0.,0.));
#195=DIRECTION('',(0.,0.,-1.));
#196=DIRECTION('',(-1.,0.,0.));
#197=DIRECTION('',(0.,0.,-1.));
#198=DIRECTION('',(-1.,0.,0.));
#199=DIRECTION('',(0.,0.,1.));
#200=DIRECTION('',(-1.,1.22464679914735E-16,0.));
#201=DIRECTION('',(0.,0.,1.));
#202=DIRECTION('',(1.,0.,0.));
#203=DIRECTION('',(0.,0.,1.));
#204=DIRECTION('',(-1.,0.,0.));
#205=DIRECTION('',(0.,0.,1.));
#206=DIRECTION('',(1.,0.,0.));
#207=DIRECTION('',(0.,0.,-1.));
#208=DIRECTION('',(-1.,0.,0.));
#209=CARTESIAN_POINT('',(0.,0.,0.));
#210=CARTESIAN_POINT('PCS',(0.,0.,0.));
#211=CARTESIAN_POINT('CIP',(0.,0.,-72.));
#212=CARTESIAN_POINT('MCS',(0.,0.,-40.));
#213=CARTESIAN_POINT('CRP',(5.,0.,-72.));
#214=CARTESIAN_POINT('',(0.,0.,-72.));
#215=CARTESIAN_POINT('',(1.61666666666667,0.,-72.));
#216=CARTESIAN_POINT('',(3.23333333333333,0.,-72.));
#217=CARTESIAN_POINT('',(4.85,0.,-72.));
#218=CARTESIAN_POINT('',(4.93786796564404,0.,-72.));
#219=CARTESIAN_POINT('',(5.00000000000001,0.,-71.937867965644));
#220=CARTESIAN_POINT('',(5.,0.,-71.85));
#221=CARTESIAN_POINT('',(4.99999999999986,0.,-64.5666666666667));
#222=CARTESIAN_POINT('',(5.,0.,-57.2833333333333));
#223=CARTESIAN_POINT('',(5.,0.,-50.));
#224=CARTESIAN_POINT('',(3.33333333333333,0.,-50.));
#225=CARTESIAN_POINT('',(1.66666666666667,0.,-50.));
#226=CARTESIAN_POINT('',(0.,0.,-50.));
#227=CARTESIAN_POINT('',(0.,0.,0.));
#228=CARTESIAN_POINT('',(0.,0.,-72.));
#229=CARTESIAN_POINT('',(0.,0.,-40.));
#230=CARTESIAN_POINT('',(0.,0.,-50.));
#231=CARTESIAN_POINT('',(5.,0.,-50.));
#232=CARTESIAN_POINT('',(0.,0.,-50.));
#233=CARTESIAN_POINT('',(0.,0.,-0.5));
#234=CARTESIAN_POINT('',(5.,0.,-0.5));
#235=CARTESIAN_POINT('',(0.,0.,-55.));
#236=CARTESIAN_POINT('',(0.,0.,0.));
#237=CARTESIAN_POINT('',(4.5,0.,0.));
#238=CARTESIAN_POINT('',(0.,0.,0.));
#239=CARTESIAN_POINT('',(0.,0.,0.));
#240=CARTESIAN_POINT('',(0.,0.,-72.));
#241=CARTESIAN_POINT('',(-4.85,0.,-72.));
#242=CARTESIAN_POINT('',(0.,0.,-72.));
#243=CARTESIAN_POINT('',(0.,0.,-50.));
#244=CARTESIAN_POINT('',(-5.,6.12323399573677E-16,-50.));
#245=CARTESIAN_POINT('',(0.,0.,-50.));
#246=CARTESIAN_POINT('',(0.,0.,-71.85));
#247=CARTESIAN_POINT('',(-5.,0.,-71.85));
#248=CARTESIAN_POINT('',(0.,0.,-74.2));
#249=CARTESIAN_POINT('',(0.,0.,-71.85));
#250=MECHANICAL_DESIGN_GEOMETRIC_PRESENTATION_REPRESENTATION('',(#124,#125,
#126,#127,#128,#129,#130,#131,#132,#133),#251);
#251=(
GEOMETRIC_REPRESENTATION_CONTEXT(3)
GLOBAL_UNCERTAINTY_ASSIGNED_CONTEXT((#252))
GLOBAL_UNIT_ASSIGNED_CONTEXT((#258,#254,#253))
REPRESENTATION_CONTEXT('1583316489401','TOP_LEVEL_ASSEMBLY_PART')
);
#252=UNCERTAINTY_MEASURE_WITH_UNIT(LENGTH_MEASURE(2.E-5),#258,
'DISTANCE_ACCURACY_VALUE','Maximum Tolerance applied to model');
#253=(
NAMED_UNIT(*)
SI_UNIT($,.STERADIAN.)
SOLID_ANGLE_UNIT()
);
#254=(
CONVERSION_BASED_UNIT('DEGREE',#256)
NAMED_UNIT(#255)
PLANE_ANGLE_UNIT()
);
#255=DIMENSIONAL_EXPONENTS(0.,0.,0.,0.,0.,0.,0.);
#256=PLANE_ANGLE_MEASURE_WITH_UNIT(PLANE_ANGLE_MEASURE(0.0174532925),#257);
#257=(
NAMED_UNIT(*)
PLANE_ANGLE_UNIT()
SI_UNIT($,.RADIAN.)
);
#258=(
LENGTH_UNIT()
NAMED_UNIT(*)
SI_UNIT(.MILLI.,.METRE.)
);
ENDSEC;
END-ISO-10303-21;
