ISO-10303-21;
HEADER;
/* Generated by software containing ST-Developer
 * from STEP Tools, Inc. (www.steptools.com) 
 */
/* OPTION: using custom schema-name function */

FILE_DESCRIPTION(
/* description */ (''),
/* implementation_level */ '2;1');

FILE_NAME(
/* name */ '1580468549785.stp',
/* time_stamp */ '2020-01-31T16:32:38+05:00',
/* author */ (''),
/* organization */ ('SMS'),
/* preprocessor_version */ 'ST-DEVELOPER v16.7',
/* originating_system */ 'SIEMENS PLM Software NX 12.0',
/* authorisation */ '');

FILE_SCHEMA (('AUTOMOTIVE_DESIGN { 1 0 10303 214 3 1 1 1 }'));
ENDSEC;

DATA;
#10=CONSTRUCTIVE_GEOMETRY_REPRESENTATION_RELATIONSHIP(
'supplemental geometry','',#26,#11);
#11=CONSTRUCTIVE_GEOMETRY_REPRESENTATION('supplemental geometry',(#191,
#192,#193),#317);
#12=GEOMETRICALLY_BOUNDED_WIREFRAME_SHAPE_REPRESENTATION(
'202827940mod000_00-None',(#27),#317);
#13=SHAPE_REPRESENTATION_RELATIONSHIP('None',
'relationship between 202827940mod000_00-None and 202827940mod000_00-N
one',#26,#15);
#14=SHAPE_REPRESENTATION_RELATIONSHIP('None',
'relationship between 202827940mod000_00-None and 202827940mod000_00-N
one',#26,#12);
#15=ADVANCED_BREP_SHAPE_REPRESENTATION('202827940mod000_00-None',(#39,#40),
#317);
#16=SHAPE_DEFINITION_REPRESENTATION(#17,#26);
#17=PRODUCT_DEFINITION_SHAPE('','',#18);
#18=PRODUCT_DEFINITION(' ','',#20,#19);
#19=PRODUCT_DEFINITION_CONTEXT('part definition',#25,'design');
#20=PRODUCT_DEFINITION_FORMATION_WITH_SPECIFIED_SOURCE(' ',' ',#22,
 .NOT_KNOWN.);
#21=PRODUCT_RELATED_PRODUCT_CATEGORY('part','',(#22));
#22=PRODUCT('202827940mod000_00','202827940mod000_00',' ',(#23));
#23=PRODUCT_CONTEXT(' ',#25,'mechanical');
#24=APPLICATION_PROTOCOL_DEFINITION('international standard',
'automotive_design',2010,#25);
#25=APPLICATION_CONTEXT(
'core data for automotive mechanical design processes');
#26=SHAPE_REPRESENTATION('202827940mod000_00-None',(#190),#317);
#27=GEOMETRIC_CURVE_SET('None',(#263,#264,#265,#266,#156));
#28=VERTEX_LOOP('',#128);
#29=SURFACE_STYLE_USAGE(.BOTH.,#31);
#30=SURFACE_STYLE_USAGE(.BOTH.,#32);
#31=SURFACE_SIDE_STYLE('',(#33));
#32=SURFACE_SIDE_STYLE('',(#34));
#33=SURFACE_STYLE_FILL_AREA(#35);
#34=SURFACE_STYLE_FILL_AREA(#36);
#35=FILL_AREA_STYLE('',(#37));
#36=FILL_AREA_STYLE('',(#38));
#37=FILL_AREA_STYLE_COLOUR('',#188);
#38=FILL_AREA_STYLE_COLOUR('',#189);
#39=MANIFOLD_SOLID_BREP('NOCUT',#41);
#40=MANIFOLD_SOLID_BREP('CUT',#42);
#41=CLOSED_SHELL('',(#54,#55,#56,#57,#58,#59,#60));
#42=CLOSED_SHELL('',(#61,#62,#63,#64));
#43=CONICAL_SURFACE('',#206,3.66,44.9999999999999);
#44=CONICAL_SURFACE('',#210,3.44999999999999,70.);
#45=CONICAL_SURFACE('',#213,4.65,45.0000000000002);
#46=PLANE('',#203);
#47=PLANE('',#205);
#48=PLANE('',#212);
#49=FACE_OUTER_BOUND('',#92,.T.);
#50=FACE_OUTER_BOUND('',#93,.T.);
#51=FACE_OUTER_BOUND('',#99,.T.);
#52=TOROIDAL_SURFACE('',#198,4.19999999999999,0.799999999999999);
#53=TOROIDAL_SURFACE('',#200,5.45,0.8);
#54=ADVANCED_FACE('',(#68,#69),#65,.T.);
#55=ADVANCED_FACE('',(#70,#71),#52,.T.);
#56=ADVANCED_FACE('',(#72,#73),#53,.F.);
#57=ADVANCED_FACE('',(#74,#75),#66,.T.);
#58=ADVANCED_FACE('',(#49),#46,.F.);
#59=ADVANCED_FACE('',(#50),#47,.F.);
#60=ADVANCED_FACE('',(#76,#77),#43,.T.);
#61=ADVANCED_FACE('',(#78,#79),#67,.T.);
#62=ADVANCED_FACE('',(#80,#81),#44,.T.);
#63=ADVANCED_FACE('',(#51),#48,.F.);
#64=ADVANCED_FACE('',(#82,#83),#45,.T.);
#65=CYLINDRICAL_SURFACE('',#196,5.);
#66=CYLINDRICAL_SURFACE('',#202,4.65);
#67=CYLINDRICAL_SURFACE('',#209,3.44999999999999);
#68=FACE_BOUND('',#84,.T.);
#69=FACE_BOUND('',#85,.T.);
#70=FACE_BOUND('',#86,.T.);
#71=FACE_BOUND('',#87,.T.);
#72=FACE_BOUND('',#88,.T.);
#73=FACE_BOUND('',#89,.T.);
#74=FACE_BOUND('',#90,.T.);
#75=FACE_BOUND('',#91,.T.);
#76=FACE_BOUND('',#94,.T.);
#77=FACE_BOUND('',#95,.T.);
#78=FACE_BOUND('',#96,.T.);
#79=FACE_BOUND('',#97,.T.);
#80=FACE_BOUND('',#28,.T.);
#81=FACE_BOUND('',#98,.T.);
#82=FACE_BOUND('',#100,.T.);
#83=FACE_BOUND('',#101,.T.);
#84=EDGE_LOOP('',(#102));
#85=EDGE_LOOP('',(#103));
#86=EDGE_LOOP('',(#104));
#87=EDGE_LOOP('',(#105));
#88=EDGE_LOOP('',(#106));
#89=EDGE_LOOP('',(#107));
#90=EDGE_LOOP('',(#108));
#91=EDGE_LOOP('',(#109));
#92=EDGE_LOOP('',(#110));
#93=EDGE_LOOP('',(#111));
#94=EDGE_LOOP('',(#112));
#95=EDGE_LOOP('',(#113));
#96=EDGE_LOOP('',(#114));
#97=EDGE_LOOP('',(#115));
#98=EDGE_LOOP('',(#116));
#99=EDGE_LOOP('',(#117));
#100=EDGE_LOOP('',(#118));
#101=EDGE_LOOP('',(#119));
#102=ORIENTED_EDGE('',*,*,#130,.F.);
#103=ORIENTED_EDGE('',*,*,#131,.T.);
#104=ORIENTED_EDGE('',*,*,#132,.F.);
#105=ORIENTED_EDGE('',*,*,#130,.T.);
#106=ORIENTED_EDGE('',*,*,#133,.F.);
#107=ORIENTED_EDGE('',*,*,#132,.T.);
#108=ORIENTED_EDGE('',*,*,#134,.F.);
#109=ORIENTED_EDGE('',*,*,#133,.T.);
#110=ORIENTED_EDGE('',*,*,#134,.T.);
#111=ORIENTED_EDGE('',*,*,#135,.F.);
#112=ORIENTED_EDGE('',*,*,#131,.F.);
#113=ORIENTED_EDGE('',*,*,#135,.T.);
#114=ORIENTED_EDGE('',*,*,#136,.F.);
#115=ORIENTED_EDGE('',*,*,#137,.T.);
#116=ORIENTED_EDGE('',*,*,#136,.T.);
#117=ORIENTED_EDGE('',*,*,#138,.F.);
#118=ORIENTED_EDGE('',*,*,#137,.F.);
#119=ORIENTED_EDGE('',*,*,#138,.T.);
#120=VERTEX_POINT('',#287);
#121=VERTEX_POINT('',#289);
#122=VERTEX_POINT('',#292);
#123=VERTEX_POINT('',#295);
#124=VERTEX_POINT('',#298);
#125=VERTEX_POINT('',#302);
#126=VERTEX_POINT('',#306);
#127=VERTEX_POINT('',#308);
#128=VERTEX_POINT('',#310);
#129=VERTEX_POINT('',#313);
#130=EDGE_CURVE('',#120,#120,#139,.T.);
#131=EDGE_CURVE('',#121,#121,#140,.T.);
#132=EDGE_CURVE('',#122,#122,#141,.T.);
#133=EDGE_CURVE('',#123,#123,#142,.T.);
#134=EDGE_CURVE('',#124,#124,#143,.T.);
#135=EDGE_CURVE('',#125,#125,#144,.T.);
#136=EDGE_CURVE('',#126,#126,#145,.T.);
#137=EDGE_CURVE('',#127,#127,#146,.T.);
#138=EDGE_CURVE('',#129,#129,#147,.T.);
#139=CIRCLE('',#194,4.99999999999999);
#140=CIRCLE('',#195,5.);
#141=CIRCLE('',#197,4.825);
#142=CIRCLE('',#199,4.65);
#143=CIRCLE('',#201,4.65);
#144=CIRCLE('',#204,3.66);
#145=CIRCLE('',#207,3.44999999999999);
#146=CIRCLE('',#208,3.44999999999999);
#147=CIRCLE('',#211,4.65);
#148=CURVE_STYLE('',#152,POSITIVE_LENGTH_MEASURE(0.18),#157);
#149=CURVE_STYLE('',#153,POSITIVE_LENGTH_MEASURE(0.18),#187);
#150=CURVE_STYLE('',#154,POSITIVE_LENGTH_MEASURE(0.18),#187);
#151=CURVE_STYLE('',#155,POSITIVE_LENGTH_MEASURE(0.18),#187);
#152=DRAUGHTING_PRE_DEFINED_CURVE_FONT('continuous');
#153=DRAUGHTING_PRE_DEFINED_CURVE_FONT('continuous');
#154=DRAUGHTING_PRE_DEFINED_CURVE_FONT('continuous');
#155=DRAUGHTING_PRE_DEFINED_CURVE_FONT('continuous');
#156=B_SPLINE_CURVE_WITH_KNOTS('CUTTING PART LINE',3,(#267,#268,#269,#270,
#271,#272,#273,#274,#275,#276,#277,#278,#279,#280,#281,#282),
 .UNSPECIFIED.,.T.,.F.,(4,3,3,3,3,4),(0.,0.384228679382268,0.415729050942838,
0.50204129051236,0.931852063309714,1.),.UNSPECIFIED.);
#157=DRAUGHTING_PRE_DEFINED_COLOUR('blue');
#158=PRESENTATION_LAYER_ASSIGNMENT('1','Layer 1',(#263,#264,#265,#266,#156,
#191,#192,#193,#39,#40));
#159=STYLED_ITEM('',(#169),#263);
#160=STYLED_ITEM('',(#170),#264);
#161=STYLED_ITEM('',(#171),#265);
#162=STYLED_ITEM('',(#172),#266);
#163=STYLED_ITEM('',(#173),#156);
#164=STYLED_ITEM('',(#174),#191);
#165=STYLED_ITEM('',(#175),#192);
#166=STYLED_ITEM('',(#176),#193);
#167=STYLED_ITEM('',(#177),#39);
#168=STYLED_ITEM('',(#178),#40);
#169=PRESENTATION_STYLE_ASSIGNMENT((#179));
#170=PRESENTATION_STYLE_ASSIGNMENT((#180));
#171=PRESENTATION_STYLE_ASSIGNMENT((#181));
#172=PRESENTATION_STYLE_ASSIGNMENT((#182));
#173=PRESENTATION_STYLE_ASSIGNMENT((#148));
#174=PRESENTATION_STYLE_ASSIGNMENT((#149));
#175=PRESENTATION_STYLE_ASSIGNMENT((#150));
#176=PRESENTATION_STYLE_ASSIGNMENT((#151));
#177=PRESENTATION_STYLE_ASSIGNMENT((#29));
#178=PRESENTATION_STYLE_ASSIGNMENT((#30));
#179=POINT_STYLE('',#183,POSITIVE_LENGTH_MEASURE(3.),#187);
#180=POINT_STYLE('',#184,POSITIVE_LENGTH_MEASURE(3.),#187);
#181=POINT_STYLE('',#185,POSITIVE_LENGTH_MEASURE(3.),#187);
#182=POINT_STYLE('',#186,POSITIVE_LENGTH_MEASURE(3.),#157);
#183=PRE_DEFINED_POINT_MARKER_SYMBOL('plus');
#184=PRE_DEFINED_POINT_MARKER_SYMBOL('plus');
#185=PRE_DEFINED_POINT_MARKER_SYMBOL('plus');
#186=PRE_DEFINED_POINT_MARKER_SYMBOL('plus');
#187=COLOUR_RGB('Medium Maroon',0.6,0.4,0.4);
#188=COLOUR_RGB('Medium Gray',0.501960784313725,0.501960784313725,0.501960784313725);
#189=COLOUR_RGB('Light Gray',0.8,0.8,0.8);
#190=AXIS2_PLACEMENT_3D('',#262,#214,#215);
#191=AXIS2_PLACEMENT_3D('PCS',#283,#216,#217);
#192=AXIS2_PLACEMENT_3D('CIP',#284,#218,#219);
#193=AXIS2_PLACEMENT_3D('MCS',#285,#220,#221);
#194=AXIS2_PLACEMENT_3D('',#286,#222,#223);
#195=AXIS2_PLACEMENT_3D('',#288,#224,#225);
#196=AXIS2_PLACEMENT_3D('',#290,#226,#227);
#197=AXIS2_PLACEMENT_3D('',#291,#228,#229);
#198=AXIS2_PLACEMENT_3D('',#293,#230,#231);
#199=AXIS2_PLACEMENT_3D('',#294,#232,#233);
#200=AXIS2_PLACEMENT_3D('',#296,#234,#235);
#201=AXIS2_PLACEMENT_3D('',#297,#236,#237);
#202=AXIS2_PLACEMENT_3D('',#299,#238,#239);
#203=AXIS2_PLACEMENT_3D('',#300,#240,#241);
#204=AXIS2_PLACEMENT_3D('',#301,#242,#243);
#205=AXIS2_PLACEMENT_3D('',#303,#244,#245);
#206=AXIS2_PLACEMENT_3D('',#304,#246,#247);
#207=AXIS2_PLACEMENT_3D('',#305,#248,#249);
#208=AXIS2_PLACEMENT_3D('',#307,#250,#251);
#209=AXIS2_PLACEMENT_3D('',#309,#252,#253);
#210=AXIS2_PLACEMENT_3D('',#311,#254,#255);
#211=AXIS2_PLACEMENT_3D('',#312,#256,#257);
#212=AXIS2_PLACEMENT_3D('',#314,#258,#259);
#213=AXIS2_PLACEMENT_3D('',#315,#260,#261);
#214=DIRECTION('',(0.,0.,1.));
#215=DIRECTION('',(1.,0.,0.));
#216=DIRECTION('',(0.,0.,1.));
#217=DIRECTION('',(1.,0.,0.));
#218=DIRECTION('',(0.,0.,1.));
#219=DIRECTION('',(1.,0.,0.));
#220=DIRECTION('',(0.,0.,1.));
#221=DIRECTION('',(1.,0.,0.));
#222=DIRECTION('',(0.,0.,-1.));
#223=DIRECTION('',(-1.,0.,0.));
#224=DIRECTION('',(0.,0.,-1.));
#225=DIRECTION('',(-1.,0.,0.));
#226=DIRECTION('',(0.,0.,-1.));
#227=DIRECTION('',(-1.,0.,0.));
#228=DIRECTION('',(0.,0.,-1.));
#229=DIRECTION('',(-1.,0.,0.));
#230=DIRECTION('',(0.,0.,-1.));
#231=DIRECTION('',(-1.,0.,0.));
#232=DIRECTION('',(0.,0.,-1.));
#233=DIRECTION('',(-1.,0.,0.));
#234=DIRECTION('',(0.,0.,-1.));
#235=DIRECTION('',(-1.,0.,0.));
#236=DIRECTION('',(0.,0.,-1.));
#237=DIRECTION('',(-1.,0.,0.));
#238=DIRECTION('',(0.,0.,-1.));
#239=DIRECTION('',(-1.,0.,0.));
#240=DIRECTION('',(0.,0.,1.));
#241=DIRECTION('',(1.,0.,0.));
#242=DIRECTION('',(0.,0.,-1.));
#243=DIRECTION('',(-1.,0.,0.));
#244=DIRECTION('',(0.,0.,-1.));
#245=DIRECTION('',(-1.,0.,0.));
#246=DIRECTION('',(0.,0.,-1.));
#247=DIRECTION('',(-1.,0.,0.));
#248=DIRECTION('',(0.,0.,-1.));
#249=DIRECTION('',(-1.,0.,0.));
#250=DIRECTION('',(0.,0.,-1.));
#251=DIRECTION('',(-1.,0.,0.));
#252=DIRECTION('',(0.,0.,-1.));
#253=DIRECTION('',(-1.,0.,0.));
#254=DIRECTION('',(0.,0.,1.));
#255=DIRECTION('',(1.,0.,1.0089533958381E-17));
#256=DIRECTION('',(0.,0.,-1.));
#257=DIRECTION('',(-1.,0.,0.));
#258=DIRECTION('',(0.,0.,-1.));
#259=DIRECTION('',(-1.,0.,0.));
#260=DIRECTION('',(0.,0.,1.));
#261=DIRECTION('',(1.,0.,-5.52542191123849E-17));
#262=CARTESIAN_POINT('',(0.,0.,0.));
#263=CARTESIAN_POINT('',(0.,0.,0.));
#264=CARTESIAN_POINT('',(0.,0.,-89.));
#265=CARTESIAN_POINT('',(0.,0.,-40.));
#266=CARTESIAN_POINT('CRP',(-3.45,0.,-87.74430269178));
#267=CARTESIAN_POINT('',(-3.44999999999999,0.,-87.7443026917816));
#268=CARTESIAN_POINT('',(-3.44999999999999,0.,-80.8443026917816));
#269=CARTESIAN_POINT('',(-3.44999999999999,0.,-73.9443026917816));
#270=CARTESIAN_POINT('',(-3.44999999999999,0.,-67.0443026917816));
#271=CARTESIAN_POINT('',(-3.84999999999999,0.,-66.6443026917816));
#272=CARTESIAN_POINT('',(-4.24999999999999,0.,-66.2443026917816));
#273=CARTESIAN_POINT('',(-4.64999999999999,0.,-65.8443026917816));
#274=CARTESIAN_POINT('',(-3.09999999999999,0.,-65.8443026917816));
#275=CARTESIAN_POINT('',(-1.55,0.,-65.8443026917816));
#276=CARTESIAN_POINT('',(-8.88178419700125E-16,0.,-65.8443026917816));
#277=CARTESIAN_POINT('',(-2.22044604925031E-15,0.,-73.5628684611877));
#278=CARTESIAN_POINT('',(-3.5527136788005E-15,0.,-81.2814342305939));
#279=CARTESIAN_POINT('',(-4.88498130835069E-15,0.,-89.));
#280=CARTESIAN_POINT('',(-1.15,0.,-88.5814342305939));
#281=CARTESIAN_POINT('',(-2.29999999999999,0.,-88.1628684611877));
#282=CARTESIAN_POINT('',(-3.44999999999999,0.,-87.7443026917816));
#283=CARTESIAN_POINT('',(0.,0.,0.));
#284=CARTESIAN_POINT('',(0.,0.,-89.));
#285=CARTESIAN_POINT('',(0.,0.,-40.));
#286=CARTESIAN_POINT('',(0.,0.,-40.));
#287=CARTESIAN_POINT('',(-4.99999999999999,0.,-40.));
#288=CARTESIAN_POINT('',(0.,0.,-1.34));
#289=CARTESIAN_POINT('',(-5.,0.,-1.34));
#290=CARTESIAN_POINT('',(0.,0.,0.));
#291=CARTESIAN_POINT('',(0.,0.,-40.4993746088859));
#292=CARTESIAN_POINT('',(-4.825,0.,-40.4993746088859));
#293=CARTESIAN_POINT('',(0.,0.,-40.));
#294=CARTESIAN_POINT('',(0.,0.,-40.9987492177719));
#295=CARTESIAN_POINT('',(-4.65,0.,-40.9987492177719));
#296=CARTESIAN_POINT('',(0.,0.,-40.9987492177719));
#297=CARTESIAN_POINT('',(0.,0.,-65.8443026917816));
#298=CARTESIAN_POINT('',(-4.65,0.,-65.8443026917816));
#299=CARTESIAN_POINT('',(0.,0.,0.));
#300=CARTESIAN_POINT('',(4.65,0.,-65.8443026917816));
#301=CARTESIAN_POINT('',(0.,0.,0.));
#302=CARTESIAN_POINT('',(-3.66,0.,0.));
#303=CARTESIAN_POINT('',(0.,0.,0.));
#304=CARTESIAN_POINT('',(0.,0.,0.));
#305=CARTESIAN_POINT('',(0.,0.,-87.7443026917816));
#306=CARTESIAN_POINT('',(-3.44999999999999,0.,-87.7443026917816));
#307=CARTESIAN_POINT('',(0.,0.,-67.0443026917816));
#308=CARTESIAN_POINT('',(-3.44999999999999,0.,-67.0443026917816));
#309=CARTESIAN_POINT('',(0.,0.,0.));
#310=CARTESIAN_POINT('',(-5.63785129692462E-15,0.,-89.));
#311=CARTESIAN_POINT('',(0.,0.,-87.7443026917816));
#312=CARTESIAN_POINT('',(0.,0.,-65.8443026917816));
#313=CARTESIAN_POINT('',(-4.65,0.,-65.8443026917816));
#314=CARTESIAN_POINT('',(-4.44089209850063E-15,0.,-65.8443026917816));
#315=CARTESIAN_POINT('',(0.,0.,-65.8443026917816));
#316=MECHANICAL_DESIGN_GEOMETRIC_PRESENTATION_REPRESENTATION('',(#159,#160,
#161,#162,#163,#164,#165,#166,#167,#168),#317);
#317=(
GEOMETRIC_REPRESENTATION_CONTEXT(3)
GLOBAL_UNCERTAINTY_ASSIGNED_CONTEXT((#318))
GLOBAL_UNIT_ASSIGNED_CONTEXT((#324,#320,#319))
REPRESENTATION_CONTEXT('1580468549785','TOP_LEVEL_ASSEMBLY_PART')
);
#318=UNCERTAINTY_MEASURE_WITH_UNIT(LENGTH_MEASURE(2.E-5),#324,
'DISTANCE_ACCURACY_VALUE','Maximum Tolerance applied to model');
#319=(
NAMED_UNIT(*)
SI_UNIT($,.STERADIAN.)
SOLID_ANGLE_UNIT()
);
#320=(
CONVERSION_BASED_UNIT('DEGREE',#322)
NAMED_UNIT(#321)
PLANE_ANGLE_UNIT()
);
#321=DIMENSIONAL_EXPONENTS(0.,0.,0.,0.,0.,0.,0.);
#322=PLANE_ANGLE_MEASURE_WITH_UNIT(PLANE_ANGLE_MEASURE(0.0174532925),#323);
#323=(
NAMED_UNIT(*)
PLANE_ANGLE_UNIT()
SI_UNIT($,.RADIAN.)
);
#324=(
LENGTH_UNIT()
NAMED_UNIT(*)
SI_UNIT(.MILLI.,.METRE.)
);
ENDSEC;
END-ISO-10303-21;
