ISO-10303-21;
HEADER;
/* Generated by software containing ST-Developer
 * from STEP Tools, Inc. (www.steptools.com) 
 */
/* OPTION: using custom schema-name function */

FILE_DESCRIPTION(
/* description */ (''),
/* implementation_level */ '2;1');

FILE_NAME(
/* name */ '1580470186969.stp',
/* time_stamp */ '2020-01-31T16:59:57+05:00',
/* author */ (''),
/* organization */ ('SMS'),
/* preprocessor_version */ 'ST-DEVELOPER v16.7',
/* originating_system */ 'SIEMENS PLM Software NX 12.0',
/* authorisation */ '');

FILE_SCHEMA (('AUTOMOTIVE_DESIGN { 1 0 10303 214 3 1 1 1 }'));
ENDSEC;

DATA;
#10=CONSTRUCTIVE_GEOMETRY_REPRESENTATION_RELATIONSHIP(
'supplemental geometry','',#26,#11);
#11=CONSTRUCTIVE_GEOMETRY_REPRESENTATION('supplemental geometry',(#204,
#205,#206),#342);
#12=GEOMETRICALLY_BOUNDED_WIREFRAME_SHAPE_REPRESENTATION(
'202827932mod000_00-None',(#27),#342);
#13=SHAPE_REPRESENTATION_RELATIONSHIP('None',
'relationship between 202827932mod000_00-None and 202827932mod000_00-N
one',#26,#15);
#14=SHAPE_REPRESENTATION_RELATIONSHIP('None',
'relationship between 202827932mod000_00-None and 202827932mod000_00-N
one',#26,#12);
#15=ADVANCED_BREP_SHAPE_REPRESENTATION('202827932mod000_00-None',(#39,#40),
#342);
#16=SHAPE_DEFINITION_REPRESENTATION(#17,#26);
#17=PRODUCT_DEFINITION_SHAPE('','',#18);
#18=PRODUCT_DEFINITION(' ','',#20,#19);
#19=PRODUCT_DEFINITION_CONTEXT('part definition',#25,'design');
#20=PRODUCT_DEFINITION_FORMATION_WITH_SPECIFIED_SOURCE(' ',' ',#22,
 .NOT_KNOWN.);
#21=PRODUCT_RELATED_PRODUCT_CATEGORY('part','',(#22));
#22=PRODUCT('202827932mod000_00','202827932mod000_00',' ',(#23));
#23=PRODUCT_CONTEXT(' ',#25,'mechanical');
#24=APPLICATION_PROTOCOL_DEFINITION('international standard',
'automotive_design',2010,#25);
#25=APPLICATION_CONTEXT(
'core data for automotive mechanical design processes');
#26=SHAPE_REPRESENTATION('202827932mod000_00-None',(#203),#342);
#27=GEOMETRIC_CURVE_SET('None',(#282,#283,#284,#285,#167));
#28=VERTEX_LOOP('',#136);
#29=SURFACE_STYLE_USAGE(.BOTH.,#31);
#30=SURFACE_STYLE_USAGE(.BOTH.,#32);
#31=SURFACE_SIDE_STYLE('',(#33));
#32=SURFACE_SIDE_STYLE('',(#34));
#33=SURFACE_STYLE_FILL_AREA(#35);
#34=SURFACE_STYLE_FILL_AREA(#36);
#35=FILL_AREA_STYLE('',(#37));
#36=FILL_AREA_STYLE('',(#38));
#37=FILL_AREA_STYLE_COLOUR('',#201);
#38=FILL_AREA_STYLE_COLOUR('',#202);
#39=MANIFOLD_SOLID_BREP('NOCUT',#41);
#40=MANIFOLD_SOLID_BREP('CUT',#42);
#41=CLOSED_SHELL('',(#56,#57,#58,#59,#60,#61,#62));
#42=CLOSED_SHELL('',(#63,#64,#65,#66,#67));
#43=CONICAL_SURFACE('',#217,4.,44.9999999999999);
#44=CONICAL_SURFACE('',#223,1.77635683940025E-15,70.0003338113384);
#45=CONICAL_SURFACE('',#225,2.75018749999692,0.035809857533897);
#46=CONICAL_SURFACE('',#228,2.73981886320713,45.);
#47=PLANE('',#215);
#48=PLANE('',#219);
#49=PLANE('',#221);
#50=FACE_OUTER_BOUND('',#94,.T.);
#51=FACE_OUTER_BOUND('',#99,.T.);
#52=FACE_OUTER_BOUND('',#100,.T.);
#53=TOROIDAL_SURFACE('',#212,3.2,0.800000000000001);
#54=TOROIDAL_SURFACE('',#213,4.50000000000655,0.800000000000001);
#55=TOROIDAL_SURFACE('',#227,2.75982404154645,0.02);
#56=ADVANCED_FACE('',(#70,#71),#68,.T.);
#57=ADVANCED_FACE('',(#72,#73),#53,.T.);
#58=ADVANCED_FACE('',(#74,#75),#54,.F.);
#59=ADVANCED_FACE('',(#50),#47,.T.);
#60=ADVANCED_FACE('',(#76,#77),#43,.T.);
#61=ADVANCED_FACE('SHANK',(#78,#79),#69,.T.);
#62=ADVANCED_FACE('',(#51),#48,.F.);
#63=ADVANCED_FACE('',(#52),#49,.T.);
#64=ADVANCED_FACE('',(#80,#81),#44,.T.);
#65=ADVANCED_FACE('',(#82,#83),#45,.T.);
#66=ADVANCED_FACE('',(#84,#85),#55,.F.);
#67=ADVANCED_FACE('',(#86,#87),#46,.T.);
#68=CYLINDRICAL_SURFACE('',#209,3.7000000000064);
#69=CYLINDRICAL_SURFACE('',#218,4.);
#70=FACE_BOUND('',#88,.T.);
#71=FACE_BOUND('',#89,.T.);
#72=FACE_BOUND('',#90,.T.);
#73=FACE_BOUND('',#91,.T.);
#74=FACE_BOUND('',#92,.T.);
#75=FACE_BOUND('',#93,.T.);
#76=FACE_BOUND('',#95,.T.);
#77=FACE_BOUND('',#96,.T.);
#78=FACE_BOUND('',#97,.T.);
#79=FACE_BOUND('',#98,.T.);
#80=FACE_BOUND('',#101,.T.);
#81=FACE_BOUND('',#28,.T.);
#82=FACE_BOUND('',#102,.T.);
#83=FACE_BOUND('',#103,.T.);
#84=FACE_BOUND('',#104,.T.);
#85=FACE_BOUND('',#105,.T.);
#86=FACE_BOUND('',#106,.T.);
#87=FACE_BOUND('',#107,.T.);
#88=EDGE_LOOP('',(#108));
#89=EDGE_LOOP('',(#109));
#90=EDGE_LOOP('',(#110));
#91=EDGE_LOOP('',(#111));
#92=EDGE_LOOP('',(#112));
#93=EDGE_LOOP('',(#113));
#94=EDGE_LOOP('',(#114));
#95=EDGE_LOOP('',(#115));
#96=EDGE_LOOP('',(#116));
#97=EDGE_LOOP('',(#117));
#98=EDGE_LOOP('',(#118));
#99=EDGE_LOOP('',(#119));
#100=EDGE_LOOP('',(#120));
#101=EDGE_LOOP('',(#121));
#102=EDGE_LOOP('',(#122));
#103=EDGE_LOOP('',(#123));
#104=EDGE_LOOP('',(#124));
#105=EDGE_LOOP('',(#125));
#106=EDGE_LOOP('',(#126));
#107=EDGE_LOOP('',(#127));
#108=ORIENTED_EDGE('',*,*,#139,.T.);
#109=ORIENTED_EDGE('',*,*,#140,.T.);
#110=ORIENTED_EDGE('',*,*,#141,.T.);
#111=ORIENTED_EDGE('',*,*,#142,.F.);
#112=ORIENTED_EDGE('',*,*,#142,.T.);
#113=ORIENTED_EDGE('',*,*,#140,.F.);
#114=ORIENTED_EDGE('',*,*,#143,.F.);
#115=ORIENTED_EDGE('',*,*,#143,.T.);
#116=ORIENTED_EDGE('',*,*,#144,.F.);
#117=ORIENTED_EDGE('',*,*,#144,.T.);
#118=ORIENTED_EDGE('',*,*,#141,.F.);
#119=ORIENTED_EDGE('',*,*,#139,.F.);
#120=ORIENTED_EDGE('',*,*,#145,.T.);
#121=ORIENTED_EDGE('',*,*,#146,.F.);
#122=ORIENTED_EDGE('',*,*,#146,.T.);
#123=ORIENTED_EDGE('',*,*,#147,.T.);
#124=ORIENTED_EDGE('',*,*,#148,.F.);
#125=ORIENTED_EDGE('',*,*,#147,.F.);
#126=ORIENTED_EDGE('',*,*,#148,.T.);
#127=ORIENTED_EDGE('',*,*,#145,.F.);
#128=VERTEX_POINT('',#309);
#129=VERTEX_POINT('',#311);
#130=VERTEX_POINT('',#314);
#131=VERTEX_POINT('',#316);
#132=VERTEX_POINT('',#320);
#133=VERTEX_POINT('',#323);
#134=VERTEX_POINT('',#328);
#135=VERTEX_POINT('',#331);
#136=VERTEX_POINT('',#332);
#137=VERTEX_POINT('',#335);
#138=VERTEX_POINT('',#338);
#139=EDGE_CURVE('',#128,#128,#149,.T.);
#140=EDGE_CURVE('',#129,#129,#150,.T.);
#141=EDGE_CURVE('',#130,#130,#151,.T.);
#142=EDGE_CURVE('',#131,#131,#152,.T.);
#143=EDGE_CURVE('',#132,#132,#153,.T.);
#144=EDGE_CURVE('',#133,#133,#154,.T.);
#145=EDGE_CURVE('',#134,#134,#155,.T.);
#146=EDGE_CURVE('',#135,#135,#156,.T.);
#147=EDGE_CURVE('',#137,#137,#157,.T.);
#148=EDGE_CURVE('',#138,#138,#158,.T.);
#149=CIRCLE('',#207,3.70000000000639);
#150=CIRCLE('',#208,3.70000000000655);
#151=CIRCLE('',#210,4.);
#152=CIRCLE('',#211,3.85000000000327);
#153=CIRCLE('',#214,2.76);
#154=CIRCLE('',#216,4.);
#155=CIRCLE('',#220,3.7000000000064);
#156=CIRCLE('',#222,2.75);
#157=CIRCLE('',#224,2.7398240454527);
#158=CIRCLE('',#226,2.74568190592272);
#159=CURVE_STYLE('',#163,POSITIVE_LENGTH_MEASURE(0.18),#170);
#160=CURVE_STYLE('',#164,POSITIVE_LENGTH_MEASURE(0.18),#200);
#161=CURVE_STYLE('',#165,POSITIVE_LENGTH_MEASURE(0.18),#200);
#162=CURVE_STYLE('',#166,POSITIVE_LENGTH_MEASURE(0.18),#200);
#163=DRAUGHTING_PRE_DEFINED_CURVE_FONT('continuous');
#164=DRAUGHTING_PRE_DEFINED_CURVE_FONT('continuous');
#165=DRAUGHTING_PRE_DEFINED_CURVE_FONT('continuous');
#166=DRAUGHTING_PRE_DEFINED_CURVE_FONT('continuous');
#167=TRIMMED_CURVE('CUTTING PART LINE',#168,(PARAMETER_VALUE(0.)),(
PARAMETER_VALUE(1.)),.T.,.PARAMETER.);
#168=(
BOUNDED_CURVE()
B_SPLINE_CURVE(3,(#286,#287,#288,#289,#290,#291,#292,#293,#294,#295,#296,
#297,#298,#299,#300,#301,#302,#303,#304),.UNSPECIFIED.,.T.,.F.)
B_SPLINE_CURVE_WITH_KNOTS((4,3,3,3,3,3,4),(0.,0.429181253390272,0.51619888224614,
0.547939375901482,0.548309094126396,0.931174166835307,1.),.UNSPECIFIED.)
CURVE()
GEOMETRIC_REPRESENTATION_ITEM()
RATIONAL_B_SPLINE_CURVE((1.,1.,1.,1.,1.,1.,1.,1.,1.,1.,0.949173265901914,
0.949173265901914,1.,1.,1.,1.,1.,1.,1.))
REPRESENTATION_ITEM('CUTTING PART LINE')
);
#169=DRAUGHTING_PRE_DEFINED_COLOUR('white');
#170=DRAUGHTING_PRE_DEFINED_COLOUR('blue');
#171=PRESENTATION_LAYER_ASSIGNMENT('1','Layer 1',(#282,#283,#284,#285,#167,
#204,#205,#206,#39,#40));
#172=STYLED_ITEM('',(#182),#282);
#173=STYLED_ITEM('',(#183),#283);
#174=STYLED_ITEM('',(#184),#284);
#175=STYLED_ITEM('',(#185),#285);
#176=STYLED_ITEM('',(#186),#167);
#177=STYLED_ITEM('',(#187),#204);
#178=STYLED_ITEM('',(#188),#205);
#179=STYLED_ITEM('',(#189),#206);
#180=STYLED_ITEM('',(#190),#39);
#181=STYLED_ITEM('',(#191),#40);
#182=PRESENTATION_STYLE_ASSIGNMENT((#192));
#183=PRESENTATION_STYLE_ASSIGNMENT((#193));
#184=PRESENTATION_STYLE_ASSIGNMENT((#194));
#185=PRESENTATION_STYLE_ASSIGNMENT((#195));
#186=PRESENTATION_STYLE_ASSIGNMENT((#159));
#187=PRESENTATION_STYLE_ASSIGNMENT((#160));
#188=PRESENTATION_STYLE_ASSIGNMENT((#161));
#189=PRESENTATION_STYLE_ASSIGNMENT((#162));
#190=PRESENTATION_STYLE_ASSIGNMENT((#29));
#191=PRESENTATION_STYLE_ASSIGNMENT((#30));
#192=POINT_STYLE('',#196,POSITIVE_LENGTH_MEASURE(3.),#200);
#193=POINT_STYLE('',#197,POSITIVE_LENGTH_MEASURE(3.),#200);
#194=POINT_STYLE('',#198,POSITIVE_LENGTH_MEASURE(3.),#200);
#195=POINT_STYLE('',#199,POSITIVE_LENGTH_MEASURE(3.),#169);
#196=PRE_DEFINED_POINT_MARKER_SYMBOL('plus');
#197=PRE_DEFINED_POINT_MARKER_SYMBOL('plus');
#198=PRE_DEFINED_POINT_MARKER_SYMBOL('plus');
#199=PRE_DEFINED_POINT_MARKER_SYMBOL('plus');
#200=COLOUR_RGB('Medium Maroon',0.6,0.4,0.4);
#201=COLOUR_RGB('Medium Gray',0.501960784313725,0.501960784313725,0.501960784313725);
#202=COLOUR_RGB('Light Gray',0.8,0.8,0.8);
#203=AXIS2_PLACEMENT_3D('',#281,#229,#230);
#204=AXIS2_PLACEMENT_3D('PCS',#305,#231,#232);
#205=AXIS2_PLACEMENT_3D('MCS',#306,#233,#234);
#206=AXIS2_PLACEMENT_3D('CIP',#307,#235,#236);
#207=AXIS2_PLACEMENT_3D('',#308,#237,#238);
#208=AXIS2_PLACEMENT_3D('',#310,#239,#240);
#209=AXIS2_PLACEMENT_3D('',#312,#241,#242);
#210=AXIS2_PLACEMENT_3D('',#313,#243,#244);
#211=AXIS2_PLACEMENT_3D('',#315,#245,#246);
#212=AXIS2_PLACEMENT_3D('',#317,#247,#248);
#213=AXIS2_PLACEMENT_3D('',#318,#249,#250);
#214=AXIS2_PLACEMENT_3D('',#319,#251,#252);
#215=AXIS2_PLACEMENT_3D('',#321,#253,#254);
#216=AXIS2_PLACEMENT_3D('',#322,#255,#256);
#217=AXIS2_PLACEMENT_3D('',#324,#257,#258);
#218=AXIS2_PLACEMENT_3D('',#325,#259,#260);
#219=AXIS2_PLACEMENT_3D('',#326,#261,#262);
#220=AXIS2_PLACEMENT_3D('',#327,#263,#264);
#221=AXIS2_PLACEMENT_3D('',#329,#265,#266);
#222=AXIS2_PLACEMENT_3D('',#330,#267,#268);
#223=AXIS2_PLACEMENT_3D('',#333,#269,#270);
#224=AXIS2_PLACEMENT_3D('',#334,#271,#272);
#225=AXIS2_PLACEMENT_3D('',#336,#273,#274);
#226=AXIS2_PLACEMENT_3D('',#337,#275,#276);
#227=AXIS2_PLACEMENT_3D('',#339,#277,#278);
#228=AXIS2_PLACEMENT_3D('',#340,#279,#280);
#229=DIRECTION('',(0.,0.,1.));
#230=DIRECTION('',(1.,0.,0.));
#231=DIRECTION('',(0.,0.,1.));
#232=DIRECTION('',(1.,0.,0.));
#233=DIRECTION('',(0.,0.,1.));
#234=DIRECTION('',(1.,0.,0.));
#235=DIRECTION('',(0.,0.,1.));
#236=DIRECTION('',(1.,0.,0.));
#237=DIRECTION('',(0.,0.,1.));
#238=DIRECTION('',(1.,0.,0.));
#239=DIRECTION('',(0.,0.,-1.));
#240=DIRECTION('',(1.,0.,0.));
#241=DIRECTION('',(0.,0.,1.));
#242=DIRECTION('',(-1.,0.,0.));
#243=DIRECTION('',(0.,0.,-1.));
#244=DIRECTION('',(1.,0.,0.));
#245=DIRECTION('',(0.,0.,-1.));
#246=DIRECTION('',(1.,0.,0.));
#247=DIRECTION('',(0.,0.,-1.));
#248=DIRECTION('',(1.,0.,0.));
#249=DIRECTION('',(0.,0.,-1.));
#250=DIRECTION('',(1.,0.,0.));
#251=DIRECTION('',(0.,0.,-1.));
#252=DIRECTION('',(1.,0.,0.));
#253=DIRECTION('',(0.,0.,1.));
#254=DIRECTION('',(-1.,0.,0.));
#255=DIRECTION('',(0.,0.,-1.));
#256=DIRECTION('',(1.,0.,0.));
#257=DIRECTION('',(0.,0.,-1.));
#258=DIRECTION('',(1.,0.,9.50296724887696E-17));
#259=DIRECTION('',(0.,0.,-1.));
#260=DIRECTION('',(1.,0.,0.));
#261=DIRECTION('',(0.,0.,1.));
#262=DIRECTION('',(1.,0.,0.));
#263=DIRECTION('',(0.,0.,1.));
#264=DIRECTION('',(-1.,0.,0.));
#265=DIRECTION('',(0.,0.,1.));
#266=DIRECTION('',(1.,0.,0.));
#267=DIRECTION('',(0.,0.,1.));
#268=DIRECTION('',(-1.,0.,0.));
#269=DIRECTION('',(0.,0.,1.));
#270=DIRECTION('',(-1.,0.,1.51530303456452E-17));
#271=DIRECTION('',(0.,0.,-1.));
#272=DIRECTION('',(-1.,0.,0.));
#273=DIRECTION('',(0.,0.,-1.));
#274=DIRECTION('',(1.,0.,0.));
#275=DIRECTION('',(0.,0.,1.));
#276=DIRECTION('',(1.,0.,0.));
#277=DIRECTION('',(0.,0.,-1.));
#278=DIRECTION('',(1.,0.,0.));
#279=DIRECTION('',(0.,0.,1.));
#280=DIRECTION('',(-1.,0.,-4.1519607220388E-17));
#281=CARTESIAN_POINT('',(0.,0.,0.));
#282=CARTESIAN_POINT('',(0.,0.,0.));
#283=CARTESIAN_POINT('',(0.,0.,-36.));
#284=CARTESIAN_POINT('',(0.,0.,-79.));
#285=CARTESIAN_POINT('CRP',(-2.75,0.,-77.9991));
#286=CARTESIAN_POINT('',(0.,0.,-79.));
#287=CARTESIAN_POINT('',(0.,0.,-72.9170539026401));
#288=CARTESIAN_POINT('',(0.,0.,-66.8341078052801));
#289=CARTESIAN_POINT('',(0.,0.,-60.7511617079202));
#290=CARTESIAN_POINT('',(-1.23333333333547,0.,-60.7511617079202));
#291=CARTESIAN_POINT('',(-2.46666666667093,0.,-60.7511617079202));
#292=CARTESIAN_POINT('',(-3.7000000000064,0.,-60.7511617079202));
#293=CARTESIAN_POINT('',(-3.38189396864517,0.,-61.0692677392814));
#294=CARTESIAN_POINT('',(-3.06378793728395,0.,-61.3873737706426));
#295=CARTESIAN_POINT('',(-2.74568190592272,0.,-61.7054798020038));
#296=CARTESIAN_POINT('',(-2.74187786301495,0.,-61.7092838449116));
#297=CARTESIAN_POINT('',(-2.73982068312291,0.,-61.714254709603));
#298=CARTESIAN_POINT('',(-2.7398240454527,0.,-61.7196344376248));
#299=CARTESIAN_POINT('',(-2.74321560055295,0.,-67.1461229586856));
#300=CARTESIAN_POINT('',(-2.74660715610421,0.,-72.5726114797456));
#301=CARTESIAN_POINT('',(-2.74999935571498,0.,-77.9991000004029));
#302=CARTESIAN_POINT('',(-1.83333333333333,0.,-78.3327333333333));
#303=CARTESIAN_POINT('',(-0.916666666666667,0.,-78.6663666666667));
#304=CARTESIAN_POINT('',(0.,0.,-79.));
#305=CARTESIAN_POINT('',(0.,0.,0.));
#306=CARTESIAN_POINT('',(0.,0.,-36.));
#307=CARTESIAN_POINT('',(0.,0.,-79.));
#308=CARTESIAN_POINT('',(0.,0.,-60.7511617079202));
#309=CARTESIAN_POINT('',(3.70000000000639,0.,-60.7511617079202));
#310=CARTESIAN_POINT('',(0.,0.,-36.9327379052998));
#311=CARTESIAN_POINT('',(3.70000000000655,0.,-36.9327379052998));
#312=CARTESIAN_POINT('',(0.,0.,15.401925));
#313=CARTESIAN_POINT('',(0.,0.,-36.));
#314=CARTESIAN_POINT('',(4.,0.,-36.));
#315=CARTESIAN_POINT('',(0.,0.,-36.4663689526499));
#316=CARTESIAN_POINT('',(3.85000000000327,0.,-36.4663689526499));
#317=CARTESIAN_POINT('',(0.,0.,-36.));
#318=CARTESIAN_POINT('',(0.,0.,-36.9327379052998));
#319=CARTESIAN_POINT('',(0.,0.,0.));
#320=CARTESIAN_POINT('',(2.76,0.,0.));
#321=CARTESIAN_POINT('',(2.76,0.,1.11022302462516E-16));
#322=CARTESIAN_POINT('',(0.,0.,-1.24));
#323=CARTESIAN_POINT('',(4.,0.,-1.24));
#324=CARTESIAN_POINT('',(0.,0.,-1.24));
#325=CARTESIAN_POINT('',(0.,0.,15.401925));
#326=CARTESIAN_POINT('',(0.,0.,-60.7511617079202));
#327=CARTESIAN_POINT('',(0.,0.,-60.7511617079202));
#328=CARTESIAN_POINT('',(-3.7000000000064,0.,-60.7511617079202));
#329=CARTESIAN_POINT('',(0.,0.,-60.7511617079202));
#330=CARTESIAN_POINT('',(0.,1.77635683940025E-15,-77.9991));
#331=CARTESIAN_POINT('',(-2.75,1.77635683940025E-15,-77.9991));
#332=CARTESIAN_POINT('',(0.,0.,-79.));
#333=CARTESIAN_POINT('',(0.,1.77635683940025E-15,-79.));
#334=CARTESIAN_POINT('',(0.,0.,-61.7196344376243));
#335=CARTESIAN_POINT('',(-2.7398240454527,0.,-61.7196344376243));
#336=CARTESIAN_POINT('',(0.,0.,-78.3011617079266));
#337=CARTESIAN_POINT('',(0.,0.,-61.7054798020038));
#338=CARTESIAN_POINT('',(2.74568190592272,0.,-61.7054798020038));
#339=CARTESIAN_POINT('',(0.,0.,-61.7196219376276));
#340=CARTESIAN_POINT('',(0.,0.,-61.7113428447194));
#341=MECHANICAL_DESIGN_GEOMETRIC_PRESENTATION_REPRESENTATION('',(#172,#173,
#174,#175,#176,#177,#178,#179,#180,#181),#342);
#342=(
GEOMETRIC_REPRESENTATION_CONTEXT(3)
GLOBAL_UNCERTAINTY_ASSIGNED_CONTEXT((#343))
GLOBAL_UNIT_ASSIGNED_CONTEXT((#349,#345,#344))
REPRESENTATION_CONTEXT('1580470186969','TOP_LEVEL_ASSEMBLY_PART')
);
#343=UNCERTAINTY_MEASURE_WITH_UNIT(LENGTH_MEASURE(2.E-5),#349,
'DISTANCE_ACCURACY_VALUE','Maximum Tolerance applied to model');
#344=(
NAMED_UNIT(*)
SI_UNIT($,.STERADIAN.)
SOLID_ANGLE_UNIT()
);
#345=(
CONVERSION_BASED_UNIT('DEGREE',#347)
NAMED_UNIT(#346)
PLANE_ANGLE_UNIT()
);
#346=DIMENSIONAL_EXPONENTS(0.,0.,0.,0.,0.,0.,0.);
#347=PLANE_ANGLE_MEASURE_WITH_UNIT(PLANE_ANGLE_MEASURE(0.0174532925),#348);
#348=(
NAMED_UNIT(*)
PLANE_ANGLE_UNIT()
SI_UNIT($,.RADIAN.)
);
#349=(
LENGTH_UNIT()
NAMED_UNIT(*)
SI_UNIT(.MILLI.,.METRE.)
);
ENDSEC;
END-ISO-10303-21;
