ISO-10303-21;
HEADER;
/* Generated by software containing ST-Developer
 * from STEP Tools, Inc. (www.steptools.com) 
 */
/* OPTION: using custom schema-name function */

FILE_DESCRIPTION(
/* description */ (''),
/* implementation_level */ '2;1');

FILE_NAME(
/* name */ '1580467557870.stp',
/* time_stamp */ '2020-01-31T16:16:06+06:00',
/* author */ (''),
/* organization */ ('SMS'),
/* preprocessor_version */ 'ST-DEVELOPER v16.7',
/* originating_system */ 'SIEMENS PLM Software NX 12.0',
/* authorisation */ '');

FILE_SCHEMA (('AUTOMOTIVE_DESIGN { 1 0 10303 214 3 1 1 1 }'));
ENDSEC;

DATA;
#10=CONSTRUCTIVE_GEOMETRY_REPRESENTATION_RELATIONSHIP(
'supplemental geometry','',#26,#11);
#11=CONSTRUCTIVE_GEOMETRY_REPRESENTATION('supplemental geometry',(#192,
#193,#194),#318);
#12=GEOMETRICALLY_BOUNDED_WIREFRAME_SHAPE_REPRESENTATION(
'202827931mod000_00-None',(#27),#318);
#13=SHAPE_REPRESENTATION_RELATIONSHIP('None',
'relationship between 202827931mod000_00-None and 202827931mod000_00-N
one',#26,#15);
#14=SHAPE_REPRESENTATION_RELATIONSHIP('None',
'relationship between 202827931mod000_00-None and 202827931mod000_00-N
one',#26,#12);
#15=ADVANCED_BREP_SHAPE_REPRESENTATION('202827931mod000_00-None',(#39,#40),
#318);
#16=SHAPE_DEFINITION_REPRESENTATION(#17,#26);
#17=PRODUCT_DEFINITION_SHAPE('','',#18);
#18=PRODUCT_DEFINITION(' ','',#20,#19);
#19=PRODUCT_DEFINITION_CONTEXT('part definition',#25,'design');
#20=PRODUCT_DEFINITION_FORMATION_WITH_SPECIFIED_SOURCE(' ',' ',#22,
 .NOT_KNOWN.);
#21=PRODUCT_RELATED_PRODUCT_CATEGORY('part','',(#22));
#22=PRODUCT('202827931mod000_00','202827931mod000_00',' ',(#23));
#23=PRODUCT_CONTEXT(' ',#25,'mechanical');
#24=APPLICATION_PROTOCOL_DEFINITION('international standard',
'automotive_design',2010,#25);
#25=APPLICATION_CONTEXT(
'core data for automotive mechanical design processes');
#26=SHAPE_REPRESENTATION('202827931mod000_00-None',(#191),#318);
#27=GEOMETRIC_CURVE_SET('None',(#264,#265,#266,#267,#156));
#28=VERTEX_LOOP('',#128);
#29=SURFACE_STYLE_USAGE(.BOTH.,#31);
#30=SURFACE_STYLE_USAGE(.BOTH.,#32);
#31=SURFACE_SIDE_STYLE('',(#33));
#32=SURFACE_SIDE_STYLE('',(#34));
#33=SURFACE_STYLE_FILL_AREA(#35);
#34=SURFACE_STYLE_FILL_AREA(#36);
#35=FILL_AREA_STYLE('',(#37));
#36=FILL_AREA_STYLE('',(#38));
#37=FILL_AREA_STYLE_COLOUR('',#189);
#38=FILL_AREA_STYLE_COLOUR('',#190);
#39=MANIFOLD_SOLID_BREP('NOCUT',#41);
#40=MANIFOLD_SOLID_BREP('CUT',#42);
#41=CLOSED_SHELL('',(#54,#55,#56,#57,#58,#59,#60));
#42=CLOSED_SHELL('',(#61,#62,#63,#64));
#43=CONICAL_SURFACE('',#207,5.055,44.9999999999999);
#44=CONICAL_SURFACE('',#211,5.12499999999999,70.);
#45=CONICAL_SURFACE('',#214,6.9,45.0000000000003);
#46=PLANE('',#204);
#47=PLANE('',#206);
#48=PLANE('',#213);
#49=FACE_OUTER_BOUND('',#92,.T.);
#50=FACE_OUTER_BOUND('',#93,.T.);
#51=FACE_OUTER_BOUND('',#99,.T.);
#52=TOROIDAL_SURFACE('',#199,6.19999999999999,0.799999999999999);
#53=TOROIDAL_SURFACE('',#201,7.7,0.800000000000001);
#54=ADVANCED_FACE('',(#68,#69),#65,.T.);
#55=ADVANCED_FACE('',(#70,#71),#52,.T.);
#56=ADVANCED_FACE('',(#72,#73),#53,.F.);
#57=ADVANCED_FACE('',(#74,#75),#66,.T.);
#58=ADVANCED_FACE('',(#49),#46,.F.);
#59=ADVANCED_FACE('',(#50),#47,.F.);
#60=ADVANCED_FACE('',(#76,#77),#43,.T.);
#61=ADVANCED_FACE('',(#78,#79),#67,.T.);
#62=ADVANCED_FACE('',(#80,#81),#44,.T.);
#63=ADVANCED_FACE('',(#51),#48,.F.);
#64=ADVANCED_FACE('',(#82,#83),#45,.T.);
#65=CYLINDRICAL_SURFACE('',#197,7.);
#66=CYLINDRICAL_SURFACE('',#203,6.9);
#67=CYLINDRICAL_SURFACE('',#210,5.12499999999999);
#68=FACE_BOUND('',#84,.T.);
#69=FACE_BOUND('',#85,.T.);
#70=FACE_BOUND('',#86,.T.);
#71=FACE_BOUND('',#87,.T.);
#72=FACE_BOUND('',#88,.T.);
#73=FACE_BOUND('',#89,.T.);
#74=FACE_BOUND('',#90,.T.);
#75=FACE_BOUND('',#91,.T.);
#76=FACE_BOUND('',#94,.T.);
#77=FACE_BOUND('',#95,.T.);
#78=FACE_BOUND('',#96,.T.);
#79=FACE_BOUND('',#97,.T.);
#80=FACE_BOUND('',#28,.T.);
#81=FACE_BOUND('',#98,.T.);
#82=FACE_BOUND('',#100,.T.);
#83=FACE_BOUND('',#101,.T.);
#84=EDGE_LOOP('',(#102));
#85=EDGE_LOOP('',(#103));
#86=EDGE_LOOP('',(#104));
#87=EDGE_LOOP('',(#105));
#88=EDGE_LOOP('',(#106));
#89=EDGE_LOOP('',(#107));
#90=EDGE_LOOP('',(#108));
#91=EDGE_LOOP('',(#109));
#92=EDGE_LOOP('',(#110));
#93=EDGE_LOOP('',(#111));
#94=EDGE_LOOP('',(#112));
#95=EDGE_LOOP('',(#113));
#96=EDGE_LOOP('',(#114));
#97=EDGE_LOOP('',(#115));
#98=EDGE_LOOP('',(#116));
#99=EDGE_LOOP('',(#117));
#100=EDGE_LOOP('',(#118));
#101=EDGE_LOOP('',(#119));
#102=ORIENTED_EDGE('',*,*,#130,.F.);
#103=ORIENTED_EDGE('',*,*,#131,.T.);
#104=ORIENTED_EDGE('',*,*,#132,.F.);
#105=ORIENTED_EDGE('',*,*,#130,.T.);
#106=ORIENTED_EDGE('',*,*,#133,.F.);
#107=ORIENTED_EDGE('',*,*,#132,.T.);
#108=ORIENTED_EDGE('',*,*,#134,.F.);
#109=ORIENTED_EDGE('',*,*,#133,.T.);
#110=ORIENTED_EDGE('',*,*,#134,.T.);
#111=ORIENTED_EDGE('',*,*,#135,.F.);
#112=ORIENTED_EDGE('',*,*,#131,.F.);
#113=ORIENTED_EDGE('',*,*,#135,.T.);
#114=ORIENTED_EDGE('',*,*,#136,.F.);
#115=ORIENTED_EDGE('',*,*,#137,.T.);
#116=ORIENTED_EDGE('',*,*,#136,.T.);
#117=ORIENTED_EDGE('',*,*,#138,.F.);
#118=ORIENTED_EDGE('',*,*,#137,.F.);
#119=ORIENTED_EDGE('',*,*,#138,.T.);
#120=VERTEX_POINT('',#288);
#121=VERTEX_POINT('',#290);
#122=VERTEX_POINT('',#293);
#123=VERTEX_POINT('',#296);
#124=VERTEX_POINT('',#299);
#125=VERTEX_POINT('',#303);
#126=VERTEX_POINT('',#307);
#127=VERTEX_POINT('',#309);
#128=VERTEX_POINT('',#311);
#129=VERTEX_POINT('',#314);
#130=EDGE_CURVE('',#120,#120,#139,.T.);
#131=EDGE_CURVE('',#121,#121,#140,.T.);
#132=EDGE_CURVE('',#122,#122,#141,.T.);
#133=EDGE_CURVE('',#123,#123,#142,.T.);
#134=EDGE_CURVE('',#124,#124,#143,.T.);
#135=EDGE_CURVE('',#125,#125,#144,.T.);
#136=EDGE_CURVE('',#126,#126,#145,.T.);
#137=EDGE_CURVE('',#127,#127,#146,.T.);
#138=EDGE_CURVE('',#129,#129,#147,.T.);
#139=CIRCLE('',#195,6.99999999999999);
#140=CIRCLE('',#196,7.);
#141=CIRCLE('',#198,6.95);
#142=CIRCLE('',#200,6.9);
#143=CIRCLE('',#202,6.9);
#144=CIRCLE('',#205,5.055);
#145=CIRCLE('',#208,5.12499999999999);
#146=CIRCLE('',#209,5.12499999999999);
#147=CIRCLE('',#212,6.9);
#148=CURVE_STYLE('',#152,POSITIVE_LENGTH_MEASURE(0.18),#158);
#149=CURVE_STYLE('',#153,POSITIVE_LENGTH_MEASURE(0.18),#188);
#150=CURVE_STYLE('',#154,POSITIVE_LENGTH_MEASURE(0.18),#188);
#151=CURVE_STYLE('',#155,POSITIVE_LENGTH_MEASURE(0.18),#188);
#152=DRAUGHTING_PRE_DEFINED_CURVE_FONT('continuous');
#153=DRAUGHTING_PRE_DEFINED_CURVE_FONT('continuous');
#154=DRAUGHTING_PRE_DEFINED_CURVE_FONT('continuous');
#155=DRAUGHTING_PRE_DEFINED_CURVE_FONT('continuous');
#156=B_SPLINE_CURVE_WITH_KNOTS('CUTTING PART LINE',3,(#268,#269,#270,#271,
#272,#273,#274,#275,#276,#277,#278,#279,#280,#281,#282,#283),
 .UNSPECIFIED.,.T.,.F.,(4,3,3,3,3,4),(0.,0.38449780929647,0.415834743695199,
0.501972239932725,0.931915036887529,1.),.UNSPECIFIED.);
#157=DRAUGHTING_PRE_DEFINED_COLOUR('white');
#158=DRAUGHTING_PRE_DEFINED_COLOUR('blue');
#159=PRESENTATION_LAYER_ASSIGNMENT('1','Layer 1',(#264,#265,#266,#267,#156,
#192,#193,#194,#39,#40));
#160=STYLED_ITEM('',(#170),#264);
#161=STYLED_ITEM('',(#171),#265);
#162=STYLED_ITEM('',(#172),#266);
#163=STYLED_ITEM('',(#173),#267);
#164=STYLED_ITEM('',(#174),#156);
#165=STYLED_ITEM('',(#175),#192);
#166=STYLED_ITEM('',(#176),#193);
#167=STYLED_ITEM('',(#177),#194);
#168=STYLED_ITEM('',(#178),#39);
#169=STYLED_ITEM('',(#179),#40);
#170=PRESENTATION_STYLE_ASSIGNMENT((#180));
#171=PRESENTATION_STYLE_ASSIGNMENT((#181));
#172=PRESENTATION_STYLE_ASSIGNMENT((#182));
#173=PRESENTATION_STYLE_ASSIGNMENT((#183));
#174=PRESENTATION_STYLE_ASSIGNMENT((#148));
#175=PRESENTATION_STYLE_ASSIGNMENT((#149));
#176=PRESENTATION_STYLE_ASSIGNMENT((#150));
#177=PRESENTATION_STYLE_ASSIGNMENT((#151));
#178=PRESENTATION_STYLE_ASSIGNMENT((#29));
#179=PRESENTATION_STYLE_ASSIGNMENT((#30));
#180=POINT_STYLE('',#184,POSITIVE_LENGTH_MEASURE(3.),#188);
#181=POINT_STYLE('',#185,POSITIVE_LENGTH_MEASURE(3.),#188);
#182=POINT_STYLE('',#186,POSITIVE_LENGTH_MEASURE(3.),#188);
#183=POINT_STYLE('',#187,POSITIVE_LENGTH_MEASURE(3.),#157);
#184=PRE_DEFINED_POINT_MARKER_SYMBOL('plus');
#185=PRE_DEFINED_POINT_MARKER_SYMBOL('plus');
#186=PRE_DEFINED_POINT_MARKER_SYMBOL('plus');
#187=PRE_DEFINED_POINT_MARKER_SYMBOL('plus');
#188=COLOUR_RGB('Medium Maroon',0.6,0.4,0.4);
#189=COLOUR_RGB('Medium Gray',0.501960784313725,0.501960784313725,0.501960784313725);
#190=COLOUR_RGB('Light Gray',0.8,0.8,0.8);
#191=AXIS2_PLACEMENT_3D('',#263,#215,#216);
#192=AXIS2_PLACEMENT_3D('PCS',#284,#217,#218);
#193=AXIS2_PLACEMENT_3D('MCS',#285,#219,#220);
#194=AXIS2_PLACEMENT_3D('CIP',#286,#221,#222);
#195=AXIS2_PLACEMENT_3D('',#287,#223,#224);
#196=AXIS2_PLACEMENT_3D('',#289,#225,#226);
#197=AXIS2_PLACEMENT_3D('',#291,#227,#228);
#198=AXIS2_PLACEMENT_3D('',#292,#229,#230);
#199=AXIS2_PLACEMENT_3D('',#294,#231,#232);
#200=AXIS2_PLACEMENT_3D('',#295,#233,#234);
#201=AXIS2_PLACEMENT_3D('',#297,#235,#236);
#202=AXIS2_PLACEMENT_3D('',#298,#237,#238);
#203=AXIS2_PLACEMENT_3D('',#300,#239,#240);
#204=AXIS2_PLACEMENT_3D('',#301,#241,#242);
#205=AXIS2_PLACEMENT_3D('',#302,#243,#244);
#206=AXIS2_PLACEMENT_3D('',#304,#245,#246);
#207=AXIS2_PLACEMENT_3D('',#305,#247,#248);
#208=AXIS2_PLACEMENT_3D('',#306,#249,#250);
#209=AXIS2_PLACEMENT_3D('',#308,#251,#252);
#210=AXIS2_PLACEMENT_3D('',#310,#253,#254);
#211=AXIS2_PLACEMENT_3D('',#312,#255,#256);
#212=AXIS2_PLACEMENT_3D('',#313,#257,#258);
#213=AXIS2_PLACEMENT_3D('',#315,#259,#260);
#214=AXIS2_PLACEMENT_3D('',#316,#261,#262);
#215=DIRECTION('',(0.,0.,1.));
#216=DIRECTION('',(1.,0.,0.));
#217=DIRECTION('',(0.,0.,1.));
#218=DIRECTION('',(1.,0.,0.));
#219=DIRECTION('',(0.,0.,1.));
#220=DIRECTION('',(1.,0.,0.));
#221=DIRECTION('',(0.,0.,1.));
#222=DIRECTION('',(1.,0.,0.));
#223=DIRECTION('',(0.,0.,-1.));
#224=DIRECTION('',(-1.,0.,0.));
#225=DIRECTION('',(0.,0.,-1.));
#226=DIRECTION('',(-1.,0.,0.));
#227=DIRECTION('',(0.,0.,-1.));
#228=DIRECTION('',(-1.,0.,0.));
#229=DIRECTION('',(0.,0.,-1.));
#230=DIRECTION('',(-1.,0.,0.));
#231=DIRECTION('',(0.,0.,-1.));
#232=DIRECTION('',(-1.,0.,0.));
#233=DIRECTION('',(0.,0.,-1.));
#234=DIRECTION('',(-1.,0.,0.));
#235=DIRECTION('',(0.,0.,-1.));
#236=DIRECTION('',(-1.,0.,0.));
#237=DIRECTION('',(0.,0.,-1.));
#238=DIRECTION('',(-1.,0.,0.));
#239=DIRECTION('',(0.,0.,-1.));
#240=DIRECTION('',(-1.,0.,0.));
#241=DIRECTION('',(0.,0.,1.));
#242=DIRECTION('',(1.,0.,0.));
#243=DIRECTION('',(0.,0.,-1.));
#244=DIRECTION('',(-1.,0.,0.));
#245=DIRECTION('',(0.,0.,-1.));
#246=DIRECTION('',(-1.,0.,0.));
#247=DIRECTION('',(0.,0.,-1.));
#248=DIRECTION('',(-1.,0.,0.));
#249=DIRECTION('',(0.,0.,-1.));
#250=DIRECTION('',(-1.,0.,0.));
#251=DIRECTION('',(0.,0.,-1.));
#252=DIRECTION('',(-1.,0.,0.));
#253=DIRECTION('',(0.,0.,-1.));
#254=DIRECTION('',(-1.,0.,0.));
#255=DIRECTION('',(0.,0.,1.));
#256=DIRECTION('',(1.,0.,5.04169716255794E-18));
#257=DIRECTION('',(0.,0.,-1.));
#258=DIRECTION('',(-1.,0.,0.));
#259=DIRECTION('',(0.,0.,-1.));
#260=DIRECTION('',(-1.,0.,0.));
#261=DIRECTION('',(0.,0.,1.));
#262=DIRECTION('',(1.,0.,5.51307490627245E-17));
#263=CARTESIAN_POINT('',(0.,0.,0.));
#264=CARTESIAN_POINT('',(0.,0.,0.));
#265=CARTESIAN_POINT('',(0.,0.,-45.));
#266=CARTESIAN_POINT('',(0.,0.,-107.));
#267=CARTESIAN_POINT('CRP',(-5.125,0.,-105.13465254939));
#268=CARTESIAN_POINT('',(-5.12499999999999,0.,-105.134652549386));
#269=CARTESIAN_POINT('',(-5.12499999999999,0.,-94.867985882719));
#270=CARTESIAN_POINT('',(-5.12499999999999,0.,-84.6013192160524));
#271=CARTESIAN_POINT('',(-5.12499999999999,0.,-74.3346525493857));
#272=CARTESIAN_POINT('',(-5.71666666666666,0.,-73.7429858827191));
#273=CARTESIAN_POINT('',(-6.30833333333333,0.,-73.1513192160524));
#274=CARTESIAN_POINT('',(-6.9,0.,-72.5596525493857));
#275=CARTESIAN_POINT('',(-4.6,0.,-72.5596525493857));
#276=CARTESIAN_POINT('',(-2.3,0.,-72.5596525493857));
#277=CARTESIAN_POINT('',(-4.44089209850063E-15,0.,-72.5596525493857));
#278=CARTESIAN_POINT('',(-7.99360577730113E-15,0.,-84.0397683662571));
#279=CARTESIAN_POINT('',(-7.99360577730113E-15,0.,-95.5198841831286));
#280=CARTESIAN_POINT('',(-7.99360577730113E-15,0.,-107.));
#281=CARTESIAN_POINT('',(-1.70833333333333,0.,-106.378217516462));
#282=CARTESIAN_POINT('',(-3.41666666666666,0.,-105.756435032924));
#283=CARTESIAN_POINT('',(-5.12499999999999,0.,-105.134652549386));
#284=CARTESIAN_POINT('',(0.,0.,0.));
#285=CARTESIAN_POINT('',(0.,0.,-45.));
#286=CARTESIAN_POINT('',(0.,0.,-107.));
#287=CARTESIAN_POINT('',(0.,0.,-45.));
#288=CARTESIAN_POINT('',(-6.99999999999999,0.,-45.));
#289=CARTESIAN_POINT('',(0.,0.,-1.94500000000001));
#290=CARTESIAN_POINT('',(-7.,0.,-1.94500000000001));
#291=CARTESIAN_POINT('',(0.,0.,0.));
#292=CARTESIAN_POINT('',(0.,0.,-45.2783882181415));
#293=CARTESIAN_POINT('',(-6.95,0.,-45.2783882181415));
#294=CARTESIAN_POINT('',(0.,0.,-45.));
#295=CARTESIAN_POINT('',(0.,0.,-45.556776436283));
#296=CARTESIAN_POINT('',(-6.9,0.,-45.556776436283));
#297=CARTESIAN_POINT('',(0.,0.,-45.556776436283));
#298=CARTESIAN_POINT('',(0.,0.,-72.5596525493857));
#299=CARTESIAN_POINT('',(-6.9,0.,-72.5596525493857));
#300=CARTESIAN_POINT('',(0.,0.,0.));
#301=CARTESIAN_POINT('',(6.9,0.,-72.5596525493857));
#302=CARTESIAN_POINT('',(0.,0.,0.));
#303=CARTESIAN_POINT('',(-5.055,0.,0.));
#304=CARTESIAN_POINT('',(0.,0.,0.));
#305=CARTESIAN_POINT('',(0.,0.,0.));
#306=CARTESIAN_POINT('',(0.,0.,-105.134652549386));
#307=CARTESIAN_POINT('',(-5.12499999999999,0.,-105.134652549386));
#308=CARTESIAN_POINT('',(0.,0.,-74.3346525493857));
#309=CARTESIAN_POINT('',(-5.12499999999999,0.,-74.3346525493857));
#310=CARTESIAN_POINT('',(0.,0.,0.));
#311=CARTESIAN_POINT('',(-9.54097911787244E-15,0.,-107.));
#312=CARTESIAN_POINT('',(0.,0.,-105.134652549386));
#313=CARTESIAN_POINT('',(0.,0.,-72.5596525493857));
#314=CARTESIAN_POINT('',(-6.9,0.,-72.5596525493857));
#315=CARTESIAN_POINT('',(-4.44089209850063E-15,0.,-72.5596525493857));
#316=CARTESIAN_POINT('',(0.,0.,-72.5596525493857));
#317=MECHANICAL_DESIGN_GEOMETRIC_PRESENTATION_REPRESENTATION('',(#160,#161,
#162,#163,#164,#165,#166,#167,#168,#169),#318);
#318=(
GEOMETRIC_REPRESENTATION_CONTEXT(3)
GLOBAL_UNCERTAINTY_ASSIGNED_CONTEXT((#319))
GLOBAL_UNIT_ASSIGNED_CONTEXT((#325,#321,#320))
REPRESENTATION_CONTEXT('1580467557870','TOP_LEVEL_ASSEMBLY_PART')
);
#319=UNCERTAINTY_MEASURE_WITH_UNIT(LENGTH_MEASURE(2.E-5),#325,
'DISTANCE_ACCURACY_VALUE','Maximum Tolerance applied to model');
#320=(
NAMED_UNIT(*)
SI_UNIT($,.STERADIAN.)
SOLID_ANGLE_UNIT()
);
#321=(
CONVERSION_BASED_UNIT('DEGREE',#323)
NAMED_UNIT(#322)
PLANE_ANGLE_UNIT()
);
#322=DIMENSIONAL_EXPONENTS(0.,0.,0.,0.,0.,0.,0.);
#323=PLANE_ANGLE_MEASURE_WITH_UNIT(PLANE_ANGLE_MEASURE(0.0174532925),#324);
#324=(
NAMED_UNIT(*)
PLANE_ANGLE_UNIT()
SI_UNIT($,.RADIAN.)
);
#325=(
LENGTH_UNIT()
NAMED_UNIT(*)
SI_UNIT(.MILLI.,.METRE.)
);
ENDSEC;
END-ISO-10303-21;
