ISO-10303-21;
HEADER;
/* Generated by software containing ST-Developer
 * from STEP Tools, Inc. (www.steptools.com) 
 */
/* OPTION: using custom schema-name function */

FILE_DESCRIPTION(
/* description */ (''),
/* implementation_level */ '2;1');

FILE_NAME(
/* name */ 'tool_1.stp',
/* time_stamp */ '2020-07-21T14:18:50+02:00',
/* author */ (''),
/* organization */ ('SMS'),
/* preprocessor_version */ 'ST-DEVELOPER v16.7',
/* originating_system */ 'SIEMENS PLM Software NX 12.0',
/* authorisation */ '');

FILE_SCHEMA (('AUTOMOTIVE_DESIGN { 1 0 10303 214 3 1 1 1 }'));
ENDSEC;

DATA;
#10=CONSTRUCTIVE_GEOMETRY_REPRESENTATION_RELATIONSHIP(
'supplemental geometry','',#26,#11);
#11=CONSTRUCTIVE_GEOMETRY_REPRESENTATION('supplemental geometry',(#178,
#179,#180),#291);
#12=GEOMETRICALLY_BOUNDED_WIREFRAME_SHAPE_REPRESENTATION('TOOL_1-None',
(#27),#291);
#13=SHAPE_REPRESENTATION_RELATIONSHIP('None',
'relationship between TOOL_1-None and TOOL_1-None',#26,#15);
#14=SHAPE_REPRESENTATION_RELATIONSHIP('None',
'relationship between TOOL_1-None and TOOL_1-None',#26,#12);
#15=ADVANCED_BREP_SHAPE_REPRESENTATION('TOOL_1-None',(#39,#40),#291);
#16=SHAPE_DEFINITION_REPRESENTATION(#17,#26);
#17=PRODUCT_DEFINITION_SHAPE('','',#18);
#18=PRODUCT_DEFINITION(' ','',#20,#19);
#19=PRODUCT_DEFINITION_CONTEXT('part definition',#25,'design');
#20=PRODUCT_DEFINITION_FORMATION_WITH_SPECIFIED_SOURCE(' ',' ',#22,
 .NOT_KNOWN.);
#21=PRODUCT_RELATED_PRODUCT_CATEGORY('part','',(#22));
#22=PRODUCT('TOOL_1','TOOL_1',' ',(#23));
#23=PRODUCT_CONTEXT(' ',#25,'mechanical');
#24=APPLICATION_PROTOCOL_DEFINITION('international standard',
'automotive_design',2010,#25);
#25=APPLICATION_CONTEXT(
'core data for automotive mechanical design processes');
#26=SHAPE_REPRESENTATION('TOOL_1-None',(#177),#291);
#27=GEOMETRIC_CURVE_SET('None',(#244,#245,#246,#145));
#28=VERTEX_LOOP('',#120);
#29=SURFACE_STYLE_USAGE(.BOTH.,#31);
#30=SURFACE_STYLE_USAGE(.BOTH.,#32);
#31=SURFACE_SIDE_STYLE('',(#33));
#32=SURFACE_SIDE_STYLE('',(#34));
#33=SURFACE_STYLE_FILL_AREA(#35);
#34=SURFACE_STYLE_FILL_AREA(#36);
#35=FILL_AREA_STYLE('',(#37));
#36=FILL_AREA_STYLE('',(#38));
#37=FILL_AREA_STYLE_COLOUR('',#175);
#38=FILL_AREA_STYLE_COLOUR('',#176);
#39=MANIFOLD_SOLID_BREP('NOCUT',#41);
#40=MANIFOLD_SOLID_BREP('CUT',#42);
#41=CLOSED_SHELL('',(#52,#53,#54,#55,#56,#57,#58));
#42=CLOSED_SHELL('',(#59,#60,#61));
#43=CYLINDRICAL_SURFACE('',#192,6.);
#44=PLANE('',#189);
#45=PLANE('',#193);
#46=PLANE('',#195);
#47=FACE_OUTER_BOUND('',#86,.T.);
#48=FACE_OUTER_BOUND('',#91,.T.);
#49=FACE_OUTER_BOUND('',#92,.T.);
#50=TOROIDAL_SURFACE('',#185,6.12140979752121,0.800000000000001);
#51=TOROIDAL_SURFACE('',#187,5.2,0.800000000000001);
#52=ADVANCED_FACE('',(#66,#67),#62,.T.);
#53=ADVANCED_FACE('',(#68,#69),#50,.F.);
#54=ADVANCED_FACE('',(#70,#71),#51,.T.);
#55=ADVANCED_FACE('',(#47),#44,.T.);
#56=ADVANCED_FACE('',(#72,#73),#63,.T.);
#57=ADVANCED_FACE('SHANK',(#74,#75),#43,.T.);
#58=ADVANCED_FACE('',(#48),#45,.T.);
#59=ADVANCED_FACE('',(#49),#46,.T.);
#60=ADVANCED_FACE('',(#76,#77),#64,.T.);
#61=ADVANCED_FACE('',(#78,#79),#65,.T.);
#62=CONICAL_SURFACE('',#183,5.35518749996045,0.0358098575338988);
#63=CONICAL_SURFACE('',#191,6.,45.);
#64=CONICAL_SURFACE('',#197,5.35518749996045,0.0358098575338988);
#65=CONICAL_SURFACE('',#198,1.33028427921445E-16,69.9999999999999);
#66=FACE_BOUND('',#80,.T.);
#67=FACE_BOUND('',#81,.T.);
#68=FACE_BOUND('',#82,.T.);
#69=FACE_BOUND('',#83,.T.);
#70=FACE_BOUND('',#84,.T.);
#71=FACE_BOUND('',#85,.T.);
#72=FACE_BOUND('',#87,.T.);
#73=FACE_BOUND('',#88,.T.);
#74=FACE_BOUND('',#89,.T.);
#75=FACE_BOUND('',#90,.T.);
#76=FACE_BOUND('',#93,.T.);
#77=FACE_BOUND('',#94,.T.);
#78=FACE_BOUND('',#95,.T.);
#79=FACE_BOUND('',#28,.T.);
#80=EDGE_LOOP('',(#96));
#81=EDGE_LOOP('',(#97));
#82=EDGE_LOOP('',(#98));
#83=EDGE_LOOP('',(#99));
#84=EDGE_LOOP('',(#100));
#85=EDGE_LOOP('',(#101));
#86=EDGE_LOOP('',(#102));
#87=EDGE_LOOP('',(#103));
#88=EDGE_LOOP('',(#104));
#89=EDGE_LOOP('',(#105));
#90=EDGE_LOOP('',(#106));
#91=EDGE_LOOP('',(#107));
#92=EDGE_LOOP('',(#108));
#93=EDGE_LOOP('',(#109));
#94=EDGE_LOOP('',(#110));
#95=EDGE_LOOP('',(#111));
#96=ORIENTED_EDGE('',*,*,#121,.F.);
#97=ORIENTED_EDGE('',*,*,#122,.F.);
#98=ORIENTED_EDGE('',*,*,#123,.F.);
#99=ORIENTED_EDGE('',*,*,#121,.T.);
#100=ORIENTED_EDGE('',*,*,#124,.F.);
#101=ORIENTED_EDGE('',*,*,#123,.T.);
#102=ORIENTED_EDGE('',*,*,#125,.F.);
#103=ORIENTED_EDGE('',*,*,#125,.T.);
#104=ORIENTED_EDGE('',*,*,#126,.F.);
#105=ORIENTED_EDGE('',*,*,#126,.T.);
#106=ORIENTED_EDGE('',*,*,#124,.T.);
#107=ORIENTED_EDGE('',*,*,#122,.T.);
#108=ORIENTED_EDGE('',*,*,#127,.T.);
#109=ORIENTED_EDGE('',*,*,#128,.T.);
#110=ORIENTED_EDGE('',*,*,#127,.F.);
#111=ORIENTED_EDGE('',*,*,#128,.F.);
#112=VERTEX_POINT('',#264);
#113=VERTEX_POINT('',#266);
#114=VERTEX_POINT('',#269);
#115=VERTEX_POINT('',#272);
#116=VERTEX_POINT('',#275);
#117=VERTEX_POINT('',#278);
#118=VERTEX_POINT('',#283);
#119=VERTEX_POINT('',#286);
#120=VERTEX_POINT('',#288);
#121=EDGE_CURVE('',#112,#112,#129,.T.);
#122=EDGE_CURVE('',#113,#113,#130,.T.);
#123=EDGE_CURVE('',#114,#114,#131,.T.);
#124=EDGE_CURVE('',#115,#115,#132,.T.);
#125=EDGE_CURVE('',#116,#116,#133,.T.);
#126=EDGE_CURVE('',#117,#117,#134,.T.);
#127=EDGE_CURVE('',#118,#118,#135,.T.);
#128=EDGE_CURVE('',#119,#119,#136,.T.);
#129=CIRCLE('',#181,5.32140995377116);
#130=CIRCLE('',#182,5.33496710782784);
#131=CIRCLE('',#184,5.66070489866154);
#132=CIRCLE('',#186,6.);
#133=CIRCLE('',#188,4.255);
#134=CIRCLE('',#190,6.);
#135=CIRCLE('',#194,5.33496710782784);
#136=CIRCLE('',#196,5.355);
#137=CURVE_STYLE('',#141,POSITIVE_LENGTH_MEASURE(0.18),#147);
#138=CURVE_STYLE('',#142,POSITIVE_LENGTH_MEASURE(0.13),#174);
#139=CURVE_STYLE('',#143,POSITIVE_LENGTH_MEASURE(0.18),#173);
#140=CURVE_STYLE('',#144,POSITIVE_LENGTH_MEASURE(0.18),#173);
#141=DRAUGHTING_PRE_DEFINED_CURVE_FONT('continuous');
#142=DRAUGHTING_PRE_DEFINED_CURVE_FONT('continuous');
#143=DRAUGHTING_PRE_DEFINED_CURVE_FONT('continuous');
#144=DRAUGHTING_PRE_DEFINED_CURVE_FONT('continuous');
#145=B_SPLINE_CURVE_WITH_KNOTS('CUTTING PART LINE',3,(#247,#248,#249,#250,
#251,#252,#253,#254,#255,#256,#257,#258,#259),.UNSPECIFIED.,.T.,.F.,(4,
3,3,3,4),(0.,0.441073918315115,0.515001435247648,0.930790739814129,1.),
 .UNSPECIFIED.);
#146=DRAUGHTING_PRE_DEFINED_COLOUR('white');
#147=DRAUGHTING_PRE_DEFINED_COLOUR('blue');
#148=PRESENTATION_LAYER_ASSIGNMENT('1','Layer 1',(#244,#245,#246,#145,#178,
#179,#180,#39,#40));
#149=STYLED_ITEM('',(#158),#244);
#150=STYLED_ITEM('',(#159),#245);
#151=STYLED_ITEM('',(#160),#246);
#152=STYLED_ITEM('',(#161),#145);
#153=STYLED_ITEM('',(#162),#178);
#154=STYLED_ITEM('',(#163),#179);
#155=STYLED_ITEM('',(#164),#180);
#156=STYLED_ITEM('',(#165),#39);
#157=STYLED_ITEM('',(#166),#40);
#158=PRESENTATION_STYLE_ASSIGNMENT((#167));
#159=PRESENTATION_STYLE_ASSIGNMENT((#168));
#160=PRESENTATION_STYLE_ASSIGNMENT((#169));
#161=PRESENTATION_STYLE_ASSIGNMENT((#137));
#162=PRESENTATION_STYLE_ASSIGNMENT((#138));
#163=PRESENTATION_STYLE_ASSIGNMENT((#139));
#164=PRESENTATION_STYLE_ASSIGNMENT((#140));
#165=PRESENTATION_STYLE_ASSIGNMENT((#29));
#166=PRESENTATION_STYLE_ASSIGNMENT((#30));
#167=POINT_STYLE('',#170,POSITIVE_LENGTH_MEASURE(3.),#173);
#168=POINT_STYLE('',#171,POSITIVE_LENGTH_MEASURE(3.),#146);
#169=POINT_STYLE('',#172,POSITIVE_LENGTH_MEASURE(3.),#173);
#170=PRE_DEFINED_POINT_MARKER_SYMBOL('plus');
#171=PRE_DEFINED_POINT_MARKER_SYMBOL('plus');
#172=PRE_DEFINED_POINT_MARKER_SYMBOL('plus');
#173=COLOUR_RGB('Medium Maroon',0.6,0.4,0.4);
#174=COLOUR_RGB('Silver Gray',0.6,0.6,0.6);
#175=COLOUR_RGB('TLS_NOCUT',0.498023956664378,0.498023956664378,0.498023956664378);
#176=COLOUR_RGB('TLS_CUT',0.8,0.8,0.8);
#177=AXIS2_PLACEMENT_3D('',#243,#199,#200);
#178=AXIS2_PLACEMENT_3D('PCS',#260,#201,#202);
#179=AXIS2_PLACEMENT_3D('MCS',#261,#203,#204);
#180=AXIS2_PLACEMENT_3D('CIP',#262,#205,#206);
#181=AXIS2_PLACEMENT_3D('',#263,#207,#208);
#182=AXIS2_PLACEMENT_3D('',#265,#209,#210);
#183=AXIS2_PLACEMENT_3D('',#267,#211,#212);
#184=AXIS2_PLACEMENT_3D('',#268,#213,#214);
#185=AXIS2_PLACEMENT_3D('',#270,#215,#216);
#186=AXIS2_PLACEMENT_3D('',#271,#217,#218);
#187=AXIS2_PLACEMENT_3D('',#273,#219,#220);
#188=AXIS2_PLACEMENT_3D('',#274,#221,#222);
#189=AXIS2_PLACEMENT_3D('',#276,#223,#224);
#190=AXIS2_PLACEMENT_3D('',#277,#225,#226);
#191=AXIS2_PLACEMENT_3D('',#279,#227,#228);
#192=AXIS2_PLACEMENT_3D('',#280,#229,#230);
#193=AXIS2_PLACEMENT_3D('',#281,#231,#232);
#194=AXIS2_PLACEMENT_3D('',#282,#233,#234);
#195=AXIS2_PLACEMENT_3D('',#284,#235,#236);
#196=AXIS2_PLACEMENT_3D('',#285,#237,#238);
#197=AXIS2_PLACEMENT_3D('',#287,#239,#240);
#198=AXIS2_PLACEMENT_3D('',#289,#241,#242);
#199=DIRECTION('',(0.,0.,1.));
#200=DIRECTION('',(1.,0.,0.));
#201=DIRECTION('',(0.,0.,1.));
#202=DIRECTION('',(1.,0.,0.));
#203=DIRECTION('',(0.,0.,1.));
#204=DIRECTION('',(1.,0.,0.));
#205=DIRECTION('',(0.,0.,1.));
#206=DIRECTION('',(1.,0.,0.));
#207=DIRECTION('',(0.,0.,1.));
#208=DIRECTION('',(1.,0.,0.));
#209=DIRECTION('',(0.,0.,-1.));
#210=DIRECTION('',(-1.,0.,0.));
#211=DIRECTION('',(0.,0.,-1.));
#212=DIRECTION('',(-1.,0.,0.));
#213=DIRECTION('',(0.,0.,1.));
#214=DIRECTION('',(1.,0.,0.));
#215=DIRECTION('',(0.,0.,1.));
#216=DIRECTION('',(1.,0.,0.));
#217=DIRECTION('',(0.,0.,1.));
#218=DIRECTION('',(1.,0.,0.));
#219=DIRECTION('',(0.,0.,1.));
#220=DIRECTION('',(1.,0.,0.));
#221=DIRECTION('',(0.,0.,-1.));
#222=DIRECTION('',(-1.,0.,0.));
#223=DIRECTION('',(0.,0.,1.));
#224=DIRECTION('',(1.,0.,0.));
#225=DIRECTION('',(0.,0.,-1.));
#226=DIRECTION('',(-1.,0.,0.));
#227=DIRECTION('',(0.,0.,-1.));
#228=DIRECTION('',(-1.,0.,-1.08635764400138E-16));
#229=DIRECTION('',(0.,0.,-1.));
#230=DIRECTION('',(-1.,0.,0.));
#231=DIRECTION('',(0.,0.,-1.));
#232=DIRECTION('',(-1.,0.,0.));
#233=DIRECTION('',(0.,0.,1.));
#234=DIRECTION('',(1.,0.,0.));
#235=DIRECTION('',(0.,0.,1.));
#236=DIRECTION('',(1.,0.,0.));
#237=DIRECTION('',(0.,0.,1.));
#238=DIRECTION('',(1.,0.,0.));
#239=DIRECTION('',(0.,0.,-1.));
#240=DIRECTION('',(-1.,0.,0.));
#241=DIRECTION('',(0.,0.,1.));
#242=DIRECTION('',(1.,0.,1.01022033590138E-17));
#243=CARTESIAN_POINT('',(0.,0.,0.));
#244=CARTESIAN_POINT('',(0.,0.,-45.));
#245=CARTESIAN_POINT('CRP',(-5.355,0.,-100.0509));
#246=CARTESIAN_POINT('CIP_DCSYS',(0.,0.,-102.));
#247=CARTESIAN_POINT('',(0.,0.,-68.));
#248=CARTESIAN_POINT('',(0.,0.,-79.3333333333334));
#249=CARTESIAN_POINT('',(0.,0.,-90.6666666666667));
#250=CARTESIAN_POINT('',(3.21473917359423E-15,0.,-102.));
#251=CARTESIAN_POINT('',(-1.785,0.,-101.350313131835));
#252=CARTESIAN_POINT('',(-3.57,0.,-100.70062626367));
#253=CARTESIAN_POINT('',(-5.35499947259526,0.,-100.050939587464));
#254=CARTESIAN_POINT('',(-5.34832166606963,0.,-89.3672931862828));
#255=CARTESIAN_POINT('',(-5.34164438694873,0.,-78.6836465931418));
#256=CARTESIAN_POINT('',(-5.33496710782784,0.,-68.0000000000004));
#257=CARTESIAN_POINT('',(-3.5566447385519,0.,-68.));
#258=CARTESIAN_POINT('',(-1.77832236927595,0.,-68.));
#259=CARTESIAN_POINT('',(0.,0.,-68.));
#260=CARTESIAN_POINT('',(0.,0.,0.));
#261=CARTESIAN_POINT('',(0.,0.,-45.));
#262=CARTESIAN_POINT('',(0.,0.,-102.));
#263=CARTESIAN_POINT('',(0.,0.,-46.3085535099056));
#264=CARTESIAN_POINT('',(5.32140995377116,0.,-46.3085535099056));
#265=CARTESIAN_POINT('',(0.,0.,-68.));
#266=CARTESIAN_POINT('',(-5.33496710782784,0.,-68.));
#267=CARTESIAN_POINT('',(0.,0.,-100.3526274113));
#268=CARTESIAN_POINT('',(0.,0.,-45.6540267550714));
#269=CARTESIAN_POINT('',(5.66070489866154,0.,-45.6540267550714));
#270=CARTESIAN_POINT('',(0.,0.,-46.3080535100033));
#271=CARTESIAN_POINT('',(0.,0.,-45.));
#272=CARTESIAN_POINT('',(6.,0.,-45.));
#273=CARTESIAN_POINT('',(0.,0.,-45.));
#274=CARTESIAN_POINT('',(0.,0.,0.));
#275=CARTESIAN_POINT('',(-4.255,0.,0.));
#276=CARTESIAN_POINT('',(-4.255,0.,2.22044604925031E-16));
#277=CARTESIAN_POINT('',(0.,0.,-1.745));
#278=CARTESIAN_POINT('',(-6.,0.,-1.745));
#279=CARTESIAN_POINT('',(0.,0.,-1.745));
#280=CARTESIAN_POINT('',(0.,0.,15.401925));
#281=CARTESIAN_POINT('',(0.,0.,-68.));
#282=CARTESIAN_POINT('',(0.,0.,-68.));
#283=CARTESIAN_POINT('',(5.33496710782784,0.,-68.));
#284=CARTESIAN_POINT('',(0.,0.,-68.));
#285=CARTESIAN_POINT('',(0.,-1.77635683940025E-15,-100.050939395504));
#286=CARTESIAN_POINT('',(5.355,-1.77635683940025E-15,-100.050939395504));
#287=CARTESIAN_POINT('',(0.,0.,-100.3526274113));
#288=CARTESIAN_POINT('',(0.,-1.9093852673217E-15,-102.));
#289=CARTESIAN_POINT('',(0.,-1.77635683940025E-15,-102.));
#290=MECHANICAL_DESIGN_GEOMETRIC_PRESENTATION_REPRESENTATION('',(#149,#150,
#151,#152,#153,#154,#155,#156,#157),#291);
#291=(
GEOMETRIC_REPRESENTATION_CONTEXT(3)
GLOBAL_UNCERTAINTY_ASSIGNED_CONTEXT((#292))
GLOBAL_UNIT_ASSIGNED_CONTEXT((#298,#294,#293))
REPRESENTATION_CONTEXT('tool_1','TOP_LEVEL_ASSEMBLY_PART')
);
#292=UNCERTAINTY_MEASURE_WITH_UNIT(LENGTH_MEASURE(2.E-5),#298,
'DISTANCE_ACCURACY_VALUE','Maximum Tolerance applied to model');
#293=(
NAMED_UNIT(*)
SI_UNIT($,.STERADIAN.)
SOLID_ANGLE_UNIT()
);
#294=(
CONVERSION_BASED_UNIT('DEGREE',#296)
NAMED_UNIT(#295)
PLANE_ANGLE_UNIT()
);
#295=DIMENSIONAL_EXPONENTS(0.,0.,0.,0.,0.,0.,0.);
#296=PLANE_ANGLE_MEASURE_WITH_UNIT(PLANE_ANGLE_MEASURE(0.0174532925),#297);
#297=(
NAMED_UNIT(*)
PLANE_ANGLE_UNIT()
SI_UNIT($,.RADIAN.)
);
#298=(
LENGTH_UNIT()
NAMED_UNIT(*)
SI_UNIT(.MILLI.,.METRE.)
);
ENDSEC;
END-ISO-10303-21;
