ISO-10303-21;
HEADER;
/* Generated by software containing ST-Developer
 * from STEP Tools, Inc. (www.steptools.com) 
 */
/* OPTION: using custom schema-name function */

FILE_DESCRIPTION(
/* description */ (''),
/* implementation_level */ '2;1');

FILE_NAME(
/* name */ '2533_1_3d.stp',
/* time_stamp */ '2020-02-03T07:07:58+01:00',
/* author */ (''),
/* organization */ ('SMS'),
/* preprocessor_version */ 'ST-DEVELOPER v16.7',
/* originating_system */ 'SIEMENS PLM Software NX 12.0',
/* authorisation */ '');

FILE_SCHEMA (('AUTOMOTIVE_DESIGN { 1 0 10303 214 3 1 1 1 }'));
ENDSEC;

DATA;
#10=CONSTRUCTIVE_GEOMETRY_REPRESENTATION_RELATIONSHIP(
'supplemental geometry','',#24,#11);
#11=CONSTRUCTIVE_GEOMETRY_REPRESENTATION('supplemental geometry',(#307,
#308,#309),#568);
#12=SHAPE_REPRESENTATION_RELATIONSHIP('None',
'relationship between 2533_1_3D-None and 2533_1_3D-None',#24,#13);
#13=ADVANCED_BREP_SHAPE_REPRESENTATION('2533_1_3D-None',(#30),#568);
#14=SHAPE_DEFINITION_REPRESENTATION(#15,#24);
#15=PRODUCT_DEFINITION_SHAPE('','',#16);
#16=PRODUCT_DEFINITION(' ','',#18,#17);
#17=PRODUCT_DEFINITION_CONTEXT('part definition',#23,'design');
#18=PRODUCT_DEFINITION_FORMATION_WITH_SPECIFIED_SOURCE(' ',' ',#20,
 .NOT_KNOWN.);
#19=PRODUCT_RELATED_PRODUCT_CATEGORY('part','',(#20));
#20=PRODUCT('2533_1_3D','2533_1_3D',' ',(#21));
#21=PRODUCT_CONTEXT(' ',#23,'mechanical');
#22=APPLICATION_PROTOCOL_DEFINITION('international standard',
'automotive_design',2010,#23);
#23=APPLICATION_CONTEXT(
'core data for automotive mechanical design processes');
#24=SHAPE_REPRESENTATION('2533_1_3D-None',(#306),#568);
#25=SURFACE_STYLE_USAGE(.BOTH.,#26);
#26=SURFACE_SIDE_STYLE('',(#27));
#27=SURFACE_STYLE_FILL_AREA(#28);
#28=FILL_AREA_STYLE('',(#29));
#29=FILL_AREA_STYLE_COLOUR('',#302);
#30=MANIFOLD_SOLID_BREP('NOCUT',#31);
#31=CLOSED_SHELL('',(#72,#73,#74,#75,#76,#77,#78,#79,#80,#81,#82,#83,#84,
#85,#86,#87,#88,#89,#90));
#32=TOROIDAL_SURFACE('',#348,14.,1.);
#33=TOROIDAL_SURFACE('',#349,24.,1.);
#34=TOROIDAL_SURFACE('',#352,10.0514831366348,1.2);
#35=(
BOUNDED_SURFACE()
B_SPLINE_SURFACE(3,3,((#533,#534,#535,#536,#537,#538,#539),(#540,#541,#542,
#543,#544,#545,#546),(#547,#548,#549,#550,#551,#552,#553),(#554,#555,#556,
#557,#558,#559,#560)),.UNSPECIFIED.,.F.,.T.,.F.)
B_SPLINE_SURFACE_WITH_KNOTS((4,4),(1,3,3,3,1),(0.,1.),(-0.5,0.,0.5,1.,1.5),
 .UNSPECIFIED.)
GEOMETRIC_REPRESENTATION_ITEM()
RATIONAL_B_SPLINE_SURFACE(((1.,0.333333333333333,0.333333333333333,1.,0.333333333333333,
0.333333333333333,1.),(0.996347930245515,0.332115976748505,0.332115976748505,
0.996347930245515,0.332115976748505,0.332115976748505,0.996347930245515),
(0.996347930245515,0.332115976748505,0.332115976748505,0.996347930245515,
0.332115976748505,0.332115976748505,0.996347930245515),(1.,0.333333333333333,
0.333333333333333,1.,0.333333333333333,0.333333333333333,1.)))
REPRESENTATION_ITEM('')
SURFACE()
);
#36=PLANE('',#334);
#37=PLANE('',#335);
#38=PLANE('',#337);
#39=PLANE('',#351);
#40=B_SPLINE_CURVE_WITH_KNOTS('',3,(#489,#490,#491,#492),.UNSPECIFIED.,
 .F.,.F.,(4,4),(0.,1.),.UNSPECIFIED.);
#41=B_SPLINE_CURVE_WITH_KNOTS('',3,(#497,#498,#499,#500),.UNSPECIFIED.,
 .F.,.F.,(4,4),(0.,1.),.UNSPECIFIED.);
#42=CONICAL_SURFACE('',#315,28.,1.43916666666667);
#43=CONICAL_SURFACE('',#318,12.,1.43916666666667);
#44=CONICAL_SURFACE('',#321,28.,1.43916666666667);
#45=CONICAL_SURFACE('',#324,12.,1.43916666666667);
#46=CONICAL_SURFACE('',#329,28.,1.43916666666667);
#47=CONICAL_SURFACE('',#332,12.,1.43916666666667);
#48=CONICAL_SURFACE('',#341,13.,69.9999999999998);
#49=CONICAL_SURFACE('',#344,13.,12.);
#50=FACE_OUTER_BOUND('',#114,.T.);
#51=FACE_OUTER_BOUND('',#115,.T.);
#52=FACE_OUTER_BOUND('',#116,.T.);
#53=FACE_OUTER_BOUND('',#117,.T.);
#54=FACE_OUTER_BOUND('',#118,.T.);
#55=FACE_OUTER_BOUND('',#119,.T.);
#56=FACE_OUTER_BOUND('',#120,.T.);
#57=FACE_OUTER_BOUND('',#123,.T.);
#58=FACE_OUTER_BOUND('',#124,.T.);
#59=FACE_OUTER_BOUND('',#137,.T.);
#60=LINE('',#465,#66);
#61=LINE('',#469,#67);
#62=LINE('',#475,#68);
#63=LINE('',#481,#69);
#64=LINE('',#487,#70);
#65=LINE('',#504,#71);
#66=VECTOR('',#369,1.);
#67=VECTOR('',#372,1.);
#68=VECTOR('',#379,1.);
#69=VECTOR('',#386,1.);
#70=VECTOR('',#393,1.);
#71=VECTOR('',#400,1.);
#72=ADVANCED_FACE('',(#94,#95),#91,.T.);
#73=ADVANCED_FACE('',(#50),#42,.T.);
#74=ADVANCED_FACE('',(#51),#43,.T.);
#75=ADVANCED_FACE('',(#52),#44,.T.);
#76=ADVANCED_FACE('',(#53),#45,.T.);
#77=ADVANCED_FACE('',(#54),#46,.T.);
#78=ADVANCED_FACE('',(#55),#47,.T.);
#79=ADVANCED_FACE('',(#56),#36,.F.);
#80=ADVANCED_FACE('',(#96,#97),#37,.T.);
#81=ADVANCED_FACE('',(#57),#38,.F.);
#82=ADVANCED_FACE('',(#58),#92,.F.);
#83=ADVANCED_FACE('AR_BY_CN_IB_SU_4',(#98,#99),#48,.T.);
#84=ADVANCED_FACE('AR_BY_CN_IB_SU_2',(#100,#101),#49,.T.);
#85=ADVANCED_FACE('AR_BY_CN_IB_SU_3',(#102,#103),#93,.T.);
#86=ADVANCED_FACE('AR_BY_CN_IB_SU_21',(#104,#105),#35,.T.);
#87=ADVANCED_FACE('AR_BY_CN_IB_SU_31',(#106,#107),#32,.F.);
#88=ADVANCED_FACE('AR_BY_CN_IB_SU_41',(#108,#109),#33,.T.);
#89=ADVANCED_FACE('AR_BY_CN_SU_1_1',(#59),#39,.F.);
#90=ADVANCED_FACE('AR_BY_CN_SU_11',(#110,#111),#34,.T.);
#91=CYLINDRICAL_SURFACE('',#312,25.);
#92=CYLINDRICAL_SURFACE('',#338,5.);
#93=CYLINDRICAL_SURFACE('',#347,13.);
#94=FACE_BOUND('',#112,.T.);
#95=FACE_BOUND('',#113,.T.);
#96=FACE_BOUND('',#121,.T.);
#97=FACE_BOUND('',#122,.T.);
#98=FACE_BOUND('',#125,.T.);
#99=FACE_BOUND('',#126,.T.);
#100=FACE_BOUND('',#127,.T.);
#101=FACE_BOUND('',#128,.T.);
#102=FACE_BOUND('',#129,.T.);
#103=FACE_BOUND('',#130,.T.);
#104=FACE_BOUND('',#131,.T.);
#105=FACE_BOUND('',#132,.T.);
#106=FACE_BOUND('',#133,.T.);
#107=FACE_BOUND('',#134,.T.);
#108=FACE_BOUND('',#135,.T.);
#109=FACE_BOUND('',#136,.T.);
#110=FACE_BOUND('',#138,.T.);
#111=FACE_BOUND('',#139,.T.);
#112=EDGE_LOOP('',(#140));
#113=EDGE_LOOP('',(#141));
#114=EDGE_LOOP('',(#142,#143,#144,#145));
#115=EDGE_LOOP('',(#146,#147,#148,#149));
#116=EDGE_LOOP('',(#150,#151,#152,#153));
#117=EDGE_LOOP('',(#154,#155,#156,#157));
#118=EDGE_LOOP('',(#158,#159,#160,#161,#162,#163,#164,#165));
#119=EDGE_LOOP('',(#166,#167,#168,#169));
#120=EDGE_LOOP('',(#170,#171,#172,#173,#174,#175,#176,#177));
#121=EDGE_LOOP('',(#178,#179,#180,#181,#182,#183));
#122=EDGE_LOOP('',(#184));
#123=EDGE_LOOP('',(#185,#186));
#124=EDGE_LOOP('',(#187,#188,#189,#190));
#125=EDGE_LOOP('',(#191));
#126=EDGE_LOOP('',(#192));
#127=EDGE_LOOP('',(#193));
#128=EDGE_LOOP('',(#194));
#129=EDGE_LOOP('',(#195));
#130=EDGE_LOOP('',(#196));
#131=EDGE_LOOP('',(#197));
#132=EDGE_LOOP('',(#198));
#133=EDGE_LOOP('',(#199));
#134=EDGE_LOOP('',(#200));
#135=EDGE_LOOP('',(#201));
#136=EDGE_LOOP('',(#202));
#137=EDGE_LOOP('',(#203));
#138=EDGE_LOOP('',(#204));
#139=EDGE_LOOP('',(#205));
#140=ORIENTED_EDGE('',*,*,#231,.T.);
#141=ORIENTED_EDGE('',*,*,#232,.T.);
#142=ORIENTED_EDGE('',*,*,#233,.F.);
#143=ORIENTED_EDGE('',*,*,#234,.F.);
#144=ORIENTED_EDGE('',*,*,#235,.T.);
#145=ORIENTED_EDGE('',*,*,#236,.T.);
#146=ORIENTED_EDGE('',*,*,#237,.F.);
#147=ORIENTED_EDGE('',*,*,#236,.F.);
#148=ORIENTED_EDGE('',*,*,#238,.T.);
#149=ORIENTED_EDGE('',*,*,#239,.T.);
#150=ORIENTED_EDGE('',*,*,#240,.F.);
#151=ORIENTED_EDGE('',*,*,#239,.F.);
#152=ORIENTED_EDGE('',*,*,#241,.T.);
#153=ORIENTED_EDGE('',*,*,#242,.T.);
#154=ORIENTED_EDGE('',*,*,#243,.F.);
#155=ORIENTED_EDGE('',*,*,#242,.F.);
#156=ORIENTED_EDGE('',*,*,#244,.T.);
#157=ORIENTED_EDGE('',*,*,#245,.T.);
#158=ORIENTED_EDGE('',*,*,#246,.F.);
#159=ORIENTED_EDGE('',*,*,#247,.F.);
#160=ORIENTED_EDGE('',*,*,#248,.F.);
#161=ORIENTED_EDGE('',*,*,#249,.T.);
#162=ORIENTED_EDGE('',*,*,#250,.T.);
#163=ORIENTED_EDGE('',*,*,#251,.F.);
#164=ORIENTED_EDGE('',*,*,#245,.F.);
#165=ORIENTED_EDGE('',*,*,#252,.T.);
#166=ORIENTED_EDGE('',*,*,#253,.F.);
#167=ORIENTED_EDGE('',*,*,#250,.F.);
#168=ORIENTED_EDGE('',*,*,#254,.T.);
#169=ORIENTED_EDGE('',*,*,#234,.T.);
#170=ORIENTED_EDGE('',*,*,#249,.F.);
#171=ORIENTED_EDGE('',*,*,#255,.T.);
#172=ORIENTED_EDGE('',*,*,#252,.F.);
#173=ORIENTED_EDGE('',*,*,#244,.F.);
#174=ORIENTED_EDGE('',*,*,#241,.F.);
#175=ORIENTED_EDGE('',*,*,#238,.F.);
#176=ORIENTED_EDGE('',*,*,#235,.F.);
#177=ORIENTED_EDGE('',*,*,#254,.F.);
#178=ORIENTED_EDGE('',*,*,#253,.T.);
#179=ORIENTED_EDGE('',*,*,#233,.T.);
#180=ORIENTED_EDGE('',*,*,#237,.T.);
#181=ORIENTED_EDGE('',*,*,#240,.T.);
#182=ORIENTED_EDGE('',*,*,#243,.T.);
#183=ORIENTED_EDGE('',*,*,#251,.T.);
#184=ORIENTED_EDGE('',*,*,#231,.F.);
#185=ORIENTED_EDGE('',*,*,#247,.T.);
#186=ORIENTED_EDGE('',*,*,#256,.F.);
#187=ORIENTED_EDGE('',*,*,#246,.T.);
#188=ORIENTED_EDGE('',*,*,#255,.F.);
#189=ORIENTED_EDGE('',*,*,#248,.T.);
#190=ORIENTED_EDGE('',*,*,#256,.T.);
#191=ORIENTED_EDGE('',*,*,#257,.T.);
#192=ORIENTED_EDGE('',*,*,#258,.T.);
#193=ORIENTED_EDGE('',*,*,#259,.T.);
#194=ORIENTED_EDGE('',*,*,#260,.T.);
#195=ORIENTED_EDGE('',*,*,#261,.T.);
#196=ORIENTED_EDGE('',*,*,#262,.T.);
#197=ORIENTED_EDGE('',*,*,#260,.F.);
#198=ORIENTED_EDGE('',*,*,#262,.F.);
#199=ORIENTED_EDGE('',*,*,#261,.F.);
#200=ORIENTED_EDGE('',*,*,#258,.F.);
#201=ORIENTED_EDGE('',*,*,#257,.F.);
#202=ORIENTED_EDGE('',*,*,#232,.F.);
#203=ORIENTED_EDGE('',*,*,#263,.F.);
#204=ORIENTED_EDGE('',*,*,#259,.F.);
#205=ORIENTED_EDGE('',*,*,#263,.T.);
#206=VERTEX_POINT('',#458);
#207=VERTEX_POINT('',#460);
#208=VERTEX_POINT('',#463);
#209=VERTEX_POINT('',#464);
#210=VERTEX_POINT('',#466);
#211=VERTEX_POINT('',#468);
#212=VERTEX_POINT('',#472);
#213=VERTEX_POINT('',#474);
#214=VERTEX_POINT('',#478);
#215=VERTEX_POINT('',#480);
#216=VERTEX_POINT('',#484);
#217=VERTEX_POINT('',#486);
#218=VERTEX_POINT('',#493);
#219=VERTEX_POINT('',#494);
#220=VERTEX_POINT('',#496);
#221=VERTEX_POINT('',#501);
#222=VERTEX_POINT('',#503);
#223=VERTEX_POINT('',#505);
#224=VERTEX_POINT('',#519);
#225=VERTEX_POINT('',#521);
#226=VERTEX_POINT('',#524);
#227=VERTEX_POINT('',#526);
#228=VERTEX_POINT('',#529);
#229=VERTEX_POINT('',#531);
#230=VERTEX_POINT('',#564);
#231=EDGE_CURVE('',#206,#206,#264,.T.);
#232=EDGE_CURVE('',#207,#207,#265,.T.);
#233=EDGE_CURVE('',#208,#209,#266,.T.);
#234=EDGE_CURVE('',#210,#208,#60,.T.);
#235=EDGE_CURVE('',#210,#211,#267,.T.);
#236=EDGE_CURVE('',#211,#209,#61,.T.);
#237=EDGE_CURVE('',#209,#212,#268,.T.);
#238=EDGE_CURVE('',#211,#213,#269,.T.);
#239=EDGE_CURVE('',#213,#212,#62,.T.);
#240=EDGE_CURVE('',#212,#214,#270,.T.);
#241=EDGE_CURVE('',#213,#215,#271,.T.);
#242=EDGE_CURVE('',#215,#214,#63,.T.);
#243=EDGE_CURVE('',#214,#216,#272,.T.);
#244=EDGE_CURVE('',#215,#217,#273,.T.);
#245=EDGE_CURVE('',#217,#216,#64,.T.);
#246=EDGE_CURVE('',#218,#219,#40,.T.);
#247=EDGE_CURVE('',#220,#218,#274,.T.);
#248=EDGE_CURVE('',#221,#220,#41,.T.);
#249=EDGE_CURVE('',#221,#222,#275,.T.);
#250=EDGE_CURVE('',#222,#223,#65,.T.);
#251=EDGE_CURVE('',#216,#223,#276,.T.);
#252=EDGE_CURVE('',#217,#219,#277,.T.);
#253=EDGE_CURVE('',#223,#208,#278,.T.);
#254=EDGE_CURVE('',#222,#210,#279,.T.);
#255=EDGE_CURVE('',#221,#219,#280,.T.);
#256=EDGE_CURVE('',#220,#218,#281,.T.);
#257=EDGE_CURVE('',#224,#224,#282,.T.);
#258=EDGE_CURVE('',#225,#225,#283,.T.);
#259=EDGE_CURVE('',#226,#226,#284,.T.);
#260=EDGE_CURVE('',#227,#227,#285,.T.);
#261=EDGE_CURVE('',#228,#228,#286,.T.);
#262=EDGE_CURVE('',#229,#229,#287,.T.);
#263=EDGE_CURVE('',#230,#230,#288,.T.);
#264=CIRCLE('',#310,25.);
#265=CIRCLE('',#311,25.);
#266=CIRCLE('',#313,28.);
#267=CIRCLE('',#314,27.2462955787619);
#268=CIRCLE('',#316,12.);
#269=CIRCLE('',#317,11.2462955787618);
#270=CIRCLE('',#319,28.);
#271=CIRCLE('',#320,27.2462955787619);
#272=CIRCLE('',#322,12.);
#273=CIRCLE('',#323,11.2462955787618);
#274=CIRCLE('',#325,27.3857308966909);
#275=CIRCLE('',#326,27.2462955787619);
#276=CIRCLE('',#327,28.);
#277=CIRCLE('',#328,27.2462955787619);
#278=CIRCLE('',#330,12.);
#279=CIRCLE('',#331,11.2462955787618);
#280=CIRCLE('',#333,5.);
#281=CIRCLE('',#336,5.);
#282=CIRCLE('',#339,24.3420201433257);
#283=CIRCLE('',#340,13.6579798566743);
#284=CIRCLE('',#342,11.2252602575154);
#285=CIRCLE('',#343,12.5629520146761);
#286=CIRCLE('',#345,13.);
#287=CIRCLE('',#346,13.);
#288=CIRCLE('',#350,10.0514831366348);
#289=PRESENTATION_LAYER_ASSIGNMENT('1','Layer 1',(#307,#308,#309,#30));
#290=STYLED_ITEM('',(#294),#307);
#291=STYLED_ITEM('',(#295),#308);
#292=STYLED_ITEM('',(#296),#309);
#293=STYLED_ITEM('',(#297),#30);
#294=PRESENTATION_STYLE_ASSIGNMENT((#298));
#295=PRESENTATION_STYLE_ASSIGNMENT((#299));
#296=PRESENTATION_STYLE_ASSIGNMENT((#300));
#297=PRESENTATION_STYLE_ASSIGNMENT((#25));
#298=CURVE_STYLE('',#303,POSITIVE_LENGTH_MEASURE(0.13),#301);
#299=CURVE_STYLE('',#304,POSITIVE_LENGTH_MEASURE(0.13),#301);
#300=CURVE_STYLE('',#305,POSITIVE_LENGTH_MEASURE(0.13),#301);
#301=COLOUR_RGB('Strong Emerald',0.,0.803921568627451,0.525490196078431);
#302=COLOUR_RGB('TLS_NOCUT',0.499992370489052,0.499992370489052,0.499992370489052);
#303=DRAUGHTING_PRE_DEFINED_CURVE_FONT('continuous');
#304=DRAUGHTING_PRE_DEFINED_CURVE_FONT('continuous');
#305=DRAUGHTING_PRE_DEFINED_CURVE_FONT('continuous');
#306=AXIS2_PLACEMENT_3D('',#453,#353,#354);
#307=AXIS2_PLACEMENT_3D('PCS',#454,#355,#356);
#308=AXIS2_PLACEMENT_3D('MCS',#455,#357,#358);
#309=AXIS2_PLACEMENT_3D('CSW',#456,#359,#360);
#310=AXIS2_PLACEMENT_3D('',#457,#361,#362);
#311=AXIS2_PLACEMENT_3D('',#459,#363,#364);
#312=AXIS2_PLACEMENT_3D('',#461,#365,#366);
#313=AXIS2_PLACEMENT_3D('',#462,#367,#368);
#314=AXIS2_PLACEMENT_3D('',#467,#370,#371);
#315=AXIS2_PLACEMENT_3D('',#470,#373,#374);
#316=AXIS2_PLACEMENT_3D('',#471,#375,#376);
#317=AXIS2_PLACEMENT_3D('',#473,#377,#378);
#318=AXIS2_PLACEMENT_3D('',#476,#380,#381);
#319=AXIS2_PLACEMENT_3D('',#477,#382,#383);
#320=AXIS2_PLACEMENT_3D('',#479,#384,#385);
#321=AXIS2_PLACEMENT_3D('',#482,#387,#388);
#322=AXIS2_PLACEMENT_3D('',#483,#389,#390);
#323=AXIS2_PLACEMENT_3D('',#485,#391,#392);
#324=AXIS2_PLACEMENT_3D('',#488,#394,#395);
#325=AXIS2_PLACEMENT_3D('',#495,#396,#397);
#326=AXIS2_PLACEMENT_3D('',#502,#398,#399);
#327=AXIS2_PLACEMENT_3D('',#506,#401,#402);
#328=AXIS2_PLACEMENT_3D('',#507,#403,#404);
#329=AXIS2_PLACEMENT_3D('',#508,#405,#406);
#330=AXIS2_PLACEMENT_3D('',#509,#407,#408);
#331=AXIS2_PLACEMENT_3D('',#510,#409,#410);
#332=AXIS2_PLACEMENT_3D('',#511,#411,#412);
#333=AXIS2_PLACEMENT_3D('',#512,#413,#414);
#334=AXIS2_PLACEMENT_3D('',#513,#415,#416);
#335=AXIS2_PLACEMENT_3D('',#514,#417,#418);
#336=AXIS2_PLACEMENT_3D('',#515,#419,#420);
#337=AXIS2_PLACEMENT_3D('',#516,#421,#422);
#338=AXIS2_PLACEMENT_3D('',#517,#423,#424);
#339=AXIS2_PLACEMENT_3D('',#518,#425,#426);
#340=AXIS2_PLACEMENT_3D('',#520,#427,#428);
#341=AXIS2_PLACEMENT_3D('',#522,#429,#430);
#342=AXIS2_PLACEMENT_3D('',#523,#431,#432);
#343=AXIS2_PLACEMENT_3D('',#525,#433,#434);
#344=AXIS2_PLACEMENT_3D('',#527,#435,#436);
#345=AXIS2_PLACEMENT_3D('',#528,#437,#438);
#346=AXIS2_PLACEMENT_3D('',#530,#439,#440);
#347=AXIS2_PLACEMENT_3D('',#532,#441,#442);
#348=AXIS2_PLACEMENT_3D('',#561,#443,#444);
#349=AXIS2_PLACEMENT_3D('',#562,#445,#446);
#350=AXIS2_PLACEMENT_3D('',#563,#447,#448);
#351=AXIS2_PLACEMENT_3D('',#565,#449,#450);
#352=AXIS2_PLACEMENT_3D('',#566,#451,#452);
#353=DIRECTION('',(0.,0.,1.));
#354=DIRECTION('',(1.,0.,0.));
#355=DIRECTION('',(0.,0.,1.));
#356=DIRECTION('',(1.,0.,0.));
#357=DIRECTION('',(0.,0.,1.));
#358=DIRECTION('',(1.,0.,0.));
#359=DIRECTION('',(0.,0.,1.));
#360=DIRECTION('',(1.,0.,0.));
#361=DIRECTION('',(0.,0.,-1.));
#362=DIRECTION('',(-1.,0.,0.));
#363=DIRECTION('',(0.,0.,1.));
#364=DIRECTION('',(-1.,0.,0.));
#365=DIRECTION('',(0.,0.,-1.));
#366=DIRECTION('',(-1.,0.,0.));
#367=DIRECTION('',(0.,0.,-1.));
#368=DIRECTION('',(-1.,0.,0.));
#369=DIRECTION('',(-0.0248035201341083,0.00394671043216829,-0.999684554679986));
#370=DIRECTION('',(0.,0.,-1.));
#371=DIRECTION('',(-1.,0.,0.));
#372=DIRECTION('',(-0.0157864666720801,0.0195340370709642,-0.999684554679986));
#373=DIRECTION('',(0.,0.,-1.));
#374=DIRECTION('',(-1.,0.,0.));
#375=DIRECTION('',(0.,0.,-1.));
#376=DIRECTION('',(-1.,0.,0.));
#377=DIRECTION('',(0.,0.,-1.));
#378=DIRECTION('',(-1.,0.,0.));
#379=DIRECTION('',(0.0158141500870706,0.0195116322049721,-0.999684554679986));
#380=DIRECTION('',(0.,0.,-1.));
#381=DIRECTION('',(-1.,0.,0.));
#382=DIRECTION('',(0.,0.,-1.));
#383=DIRECTION('',(-1.,0.,0.));
#384=DIRECTION('',(0.,0.,-1.));
#385=DIRECTION('',(-1.,0.,0.));
#386=DIRECTION('',(0.0248046442023397,0.00393963961217701,-0.999684554679986));
#387=DIRECTION('',(0.,0.,-1.));
#388=DIRECTION('',(-1.,0.,0.));
#389=DIRECTION('',(0.,0.,-1.));
#390=DIRECTION('',(-1.,0.,0.));
#391=DIRECTION('',(0.,0.,-1.));
#392=DIRECTION('',(-1.,0.,0.));
#393=DIRECTION('',(0.00902373900588192,-0.0234384997094998,-0.999684554679986));
#394=DIRECTION('',(0.,0.,-1.));
#395=DIRECTION('',(-1.,0.,0.));
#396=DIRECTION('',(0.,0.,1.));
#397=DIRECTION('',(-1.,0.,0.));
#398=DIRECTION('',(0.,0.,-1.));
#399=DIRECTION('',(-1.,0.,0.));
#400=DIRECTION('',(-0.00898380857141531,-0.0234538337555006,-0.999684554679986));
#401=DIRECTION('',(0.,0.,-1.));
#402=DIRECTION('',(-1.,0.,0.));
#403=DIRECTION('',(0.,0.,-1.));
#404=DIRECTION('',(-1.,0.,0.));
#405=DIRECTION('',(0.,0.,-1.));
#406=DIRECTION('',(-1.,0.,0.));
#407=DIRECTION('',(0.,0.,-1.));
#408=DIRECTION('',(-1.,0.,0.));
#409=DIRECTION('',(0.,0.,-1.));
#410=DIRECTION('',(-1.,0.,0.));
#411=DIRECTION('',(0.,0.,-1.));
#412=DIRECTION('',(-1.,0.,0.));
#413=DIRECTION('',(0.,0.,-1.));
#414=DIRECTION('',(-1.,0.,0.));
#415=DIRECTION('',(0.,0.,-1.));
#416=DIRECTION('',(-1.,0.,0.));
#417=DIRECTION('',(0.,0.,1.));
#418=DIRECTION('',(1.,0.,0.));
#419=DIRECTION('',(0.,0.,-1.));
#420=DIRECTION('',(-1.,0.,0.));
#421=DIRECTION('',(0.,0.,-1.));
#422=DIRECTION('',(-1.,0.,0.));
#423=DIRECTION('',(0.,0.,-1.));
#424=DIRECTION('',(-1.,0.,0.));
#425=DIRECTION('',(0.,0.,-1.));
#426=DIRECTION('',(-1.,0.,0.));
#427=DIRECTION('',(0.,0.,1.));
#428=DIRECTION('',(1.,0.,0.));
#429=DIRECTION('',(0.,0.,1.));
#430=DIRECTION('',(1.,0.,1.88524288996309E-17));
#431=DIRECTION('',(0.,0.,1.));
#432=DIRECTION('',(1.,0.,0.));
#433=DIRECTION('',(0.,0.,-1.));
#434=DIRECTION('',(1.,0.,0.));
#435=DIRECTION('',(0.,0.,1.));
#436=DIRECTION('',(1.,0.,-1.99962306755589E-16));
#437=DIRECTION('',(0.,0.,-1.));
#438=DIRECTION('',(1.,0.,0.));
#439=DIRECTION('',(0.,0.,1.));
#440=DIRECTION('',(-1.,0.,0.));
#441=DIRECTION('',(0.,0.,1.));
#442=DIRECTION('',(1.,0.,0.));
#443=DIRECTION('',(0.,0.,1.));
#444=DIRECTION('',(1.,0.,0.));
#445=DIRECTION('',(0.,0.,-1.));
#446=DIRECTION('',(-1.,0.,0.));
#447=DIRECTION('',(0.,0.,1.));
#448=DIRECTION('',(1.,0.,0.));
#449=DIRECTION('',(0.,0.,1.));
#450=DIRECTION('',(1.,0.,0.));
#451=DIRECTION('',(0.,0.,1.));
#452=DIRECTION('',(1.,0.,0.));
#453=CARTESIAN_POINT('',(0.,0.,0.));
#454=CARTESIAN_POINT('',(0.,0.,0.));
#455=CARTESIAN_POINT('',(0.,0.,0.));
#456=CARTESIAN_POINT('',(0.,0.,-36.));
#457=CARTESIAN_POINT('',(0.,0.,0.));
#458=CARTESIAN_POINT('',(-25.,0.,0.));
#459=CARTESIAN_POINT('',(0.,0.,-17.4321496505958));
#460=CARTESIAN_POINT('',(-25.,0.,-17.4321496505958));
#461=CARTESIAN_POINT('',(0.,0.,0.));
#462=CARTESIAN_POINT('',(10.0681279375701,-5.82427314056864,0.));
#463=CARTESIAN_POINT('',(-17.5840002560203,-1.42429514457352,0.));
#464=CARTESIAN_POINT('',(-7.53136591572022,15.9531880546211,0.));
#465=CARTESIAN_POINT('',(-17.5840002560203,-1.42429514457352,-1.74219201836178E-16));
#466=CARTESIAN_POINT('',(-16.8396598533005,-1.54273381846395,30.));
#467=CARTESIAN_POINT('',(10.0681279375701,-5.82427314056864,30.));
#468=CARTESIAN_POINT('',(-7.05762247540669,15.366982026544,30.));
#469=CARTESIAN_POINT('',(-7.53136591572022,15.9531880546211,0.));
#470=CARTESIAN_POINT('',(10.0681279375701,-5.82427314056864,0.));
#471=CARTESIAN_POINT('',(0.0112743071184957,6.61999039953979,0.));
#472=CARTESIAN_POINT('',(7.56714143143875,15.9424831991946,0.));
#473=CARTESIAN_POINT('',(0.0112743071184957,6.61999039953979,30.));
#474=CARTESIAN_POINT('',(7.09256722661472,15.3569495291895,30.));
#475=CARTESIAN_POINT('',(7.56714143143875,15.9424831991946,4.35548004590446E-17));
#476=CARTESIAN_POINT('',(0.0112743071184957,6.61999039953979,0.));
#477=CARTESIAN_POINT('',(-10.0632151919752,-5.81,0.));
#478=CARTESIAN_POINT('',(17.5901661656285,-1.41790488594162,0.));
#479=CARTESIAN_POINT('',(-10.0632151919752,-5.81,30.));
#480=CARTESIAN_POINT('',(16.845792030221,-1.53613136829749,30.));
#481=CARTESIAN_POINT('',(17.5901661656285,-1.41790488594162,0.));
#482=CARTESIAN_POINT('',(-10.0632151919752,-5.81,0.));
#483=CARTESIAN_POINT('',(5.7387170123698,-3.30023136339521,0.));
#484=CARTESIAN_POINT('',(10.0501831687922,-14.4989482355205,0.));
#485=CARTESIAN_POINT('',(5.7387170123698,-3.30023136339521,30.));
#486=CARTESIAN_POINT('',(9.77938557678269,-13.7955713672942,30.));
#487=CARTESIAN_POINT('',(10.0501831687922,-14.4989482355205,0.));
#488=CARTESIAN_POINT('',(5.7387170123698,-3.30023136339521,0.));
#489=CARTESIAN_POINT('',(3.58734998592506,-15.5170529607122,24.45));
#490=CARTESIAN_POINT('',(3.54701774381426,-15.4755117410105,26.3000273089909));
#491=CARTESIAN_POINT('',(3.50538973197555,-15.4340772977189,28.1500293204981));
#492=CARTESIAN_POINT('',(3.46233244950734,-15.3927497994888,30.));
#493=CARTESIAN_POINT('',(3.58734998592506,-15.5170529607122,24.45));
#494=CARTESIAN_POINT('',(3.46233244950734,-15.3927497994888,30.));
#495=CARTESIAN_POINT('',(-0.00990452952675801,11.6313911327719,24.45));
#496=CARTESIAN_POINT('',(-3.58960162766305,-15.5193735973709,24.45));
#497=CARTESIAN_POINT('',(-3.46466450317153,-15.3949896143751,30.));
#498=CARTESIAN_POINT('',(-3.50769505049887,-15.4363449487375,28.1500293204981));
#499=CARTESIAN_POINT('',(-3.54929625833513,-15.4778063038418,26.3000273089909));
#500=CARTESIAN_POINT('',(-3.58960162766305,-15.5193735973709,24.45));
#501=CARTESIAN_POINT('',(-3.46466450317153,-15.3949896143751,30.));
#502=CARTESIAN_POINT('',(-0.00990452952675801,11.6313911327719,30.));
#503=CARTESIAN_POINT('',(-9.75587660471742,-13.8122063148152,30.));
#504=CARTESIAN_POINT('',(-10.0254759056977,-14.5160433495789,0.));
#505=CARTESIAN_POINT('',(-10.0254759056977,-14.5160433495789,0.));
#506=CARTESIAN_POINT('',(-0.00990452952675801,11.6313911327719,0.));
#507=CARTESIAN_POINT('',(-0.00990452952675801,11.6313911327719,30.));
#508=CARTESIAN_POINT('',(-0.00990452952675801,11.6313911327719,0.));
#509=CARTESIAN_POINT('',(-5.73308817305298,-3.31,0.));
#510=CARTESIAN_POINT('',(-5.73308817305298,-3.31,30.));
#511=CARTESIAN_POINT('',(-5.73308817305298,-3.31,0.));
#512=CARTESIAN_POINT('',(0.,-19.,30.));
#513=CARTESIAN_POINT('',(5.03970112234431,0.397858629485572,30.));
#514=CARTESIAN_POINT('',(0.,0.,0.));
#515=CARTESIAN_POINT('',(0.,-19.,24.45));
#516=CARTESIAN_POINT('',(0.,-19.,24.45));
#517=CARTESIAN_POINT('',(0.,-19.,30.));
#518=CARTESIAN_POINT('',(0.,0.,-18.3718422713817));
#519=CARTESIAN_POINT('',(-24.3420201433257,0.,-18.3718422713817));
#520=CARTESIAN_POINT('',(0.,0.,-22.2605149174238));
#521=CARTESIAN_POINT('',(13.6579798566743,0.,-22.2605149174238));
#522=CARTESIAN_POINT('',(0.,0.,-22.5));
#523=CARTESIAN_POINT('',(0.,0.,-35.0494940289813));
#524=CARTESIAN_POINT('',(11.2252602575154,0.,-35.0494940289813));
#525=CARTESIAN_POINT('',(0.,0.,-28.7561491110417));
#526=CARTESIAN_POINT('',(12.5629520146761,0.,-28.7561491110417));
#527=CARTESIAN_POINT('',(0.,0.,-26.7));
#528=CARTESIAN_POINT('',(0.,0.,-23.2002075382097));
#529=CARTESIAN_POINT('',(13.,0.,-23.2002075382097));
#530=CARTESIAN_POINT('',(0.,0.,-24.5979152946865));
#531=CARTESIAN_POINT('',(-13.,0.,-24.5979152946865));
#532=CARTESIAN_POINT('',(0.,0.,22.7396300133012));
#533=CARTESIAN_POINT('',(-12.5629520146761,0.,-28.7561491110417));
#534=CARTESIAN_POINT('',(-12.5629520146761,25.1259040293522,-28.7561491110417));
#535=CARTESIAN_POINT('',(12.5629520146761,25.1259040293522,-28.7561491110417));
#536=CARTESIAN_POINT('',(12.5629520146761,0.,-28.7561491110417));
#537=CARTESIAN_POINT('',(12.5629520146761,-25.1259040293522,-28.7561491110417));
#538=CARTESIAN_POINT('',(-12.5629520146761,-25.1259040293522,-28.7561491110417));
#539=CARTESIAN_POINT('',(-12.5629520146761,0.,-28.7561491110417));
#540=CARTESIAN_POINT('',(-12.8537833448013,0.,-27.387895278555));
#541=CARTESIAN_POINT('',(-12.8537833448013,25.7075666896026,-27.387895278555));
#542=CARTESIAN_POINT('',(12.8537833448013,25.7075666896026,-27.387895278555));
#543=CARTESIAN_POINT('',(12.8537833448013,0.,-27.387895278555));
#544=CARTESIAN_POINT('',(12.8537833448013,-25.7075666896026,-27.387895278555));
#545=CARTESIAN_POINT('',(-12.8537833448013,-25.7075666896026,-27.387895278555));
#546=CARTESIAN_POINT('',(-12.8537833448013,0.,-27.387895278555));
#547=CARTESIAN_POINT('',(-13.,0.,-25.9967367317173));
#548=CARTESIAN_POINT('',(-13.,26.,-25.9967367317173));
#549=CARTESIAN_POINT('',(13.,26.,-25.9967367317173));
#550=CARTESIAN_POINT('',(13.,0.,-25.9967367317173));
#551=CARTESIAN_POINT('',(13.,-26.,-25.9967367317173));
#552=CARTESIAN_POINT('',(-13.,-26.,-25.9967367317173));
#553=CARTESIAN_POINT('',(-13.,0.,-25.9967367317173));
#554=CARTESIAN_POINT('',(-13.,0.,-24.5979152946865));
#555=CARTESIAN_POINT('',(-13.,26.,-24.5979152946865));
#556=CARTESIAN_POINT('',(13.,26.,-24.5979152946865));
#557=CARTESIAN_POINT('',(13.,0.,-24.5979152946865));
#558=CARTESIAN_POINT('',(13.,-26.,-24.5979152946865));
#559=CARTESIAN_POINT('',(-13.,-26.,-24.5979152946865));
#560=CARTESIAN_POINT('',(-13.,0.,-24.5979152946865));
#561=CARTESIAN_POINT('',(0.,0.,-23.2002075382097));
#562=CARTESIAN_POINT('',(0.,0.,-17.4321496505958));
#563=CARTESIAN_POINT('',(0.,0.,-36.));
#564=CARTESIAN_POINT('',(10.0514831366348,0.,-36.));
#565=CARTESIAN_POINT('',(0.,0.,-36.));
#566=CARTESIAN_POINT('',(0.,0.,-34.8));
#567=MECHANICAL_DESIGN_GEOMETRIC_PRESENTATION_REPRESENTATION('',(#290,#291,
#292,#293),#568);
#568=(
GEOMETRIC_REPRESENTATION_CONTEXT(3)
GLOBAL_UNCERTAINTY_ASSIGNED_CONTEXT((#569))
GLOBAL_UNIT_ASSIGNED_CONTEXT((#575,#571,#570))
REPRESENTATION_CONTEXT('2533_1_3d','TOP_LEVEL_ASSEMBLY_PART')
);
#569=UNCERTAINTY_MEASURE_WITH_UNIT(LENGTH_MEASURE(0.0508),#575,
'DISTANCE_ACCURACY_VALUE','Maximum Tolerance applied to model');
#570=(
NAMED_UNIT(*)
SI_UNIT($,.STERADIAN.)
SOLID_ANGLE_UNIT()
);
#571=(
CONVERSION_BASED_UNIT('DEGREE',#573)
NAMED_UNIT(#572)
PLANE_ANGLE_UNIT()
);
#572=DIMENSIONAL_EXPONENTS(0.,0.,0.,0.,0.,0.,0.);
#573=PLANE_ANGLE_MEASURE_WITH_UNIT(PLANE_ANGLE_MEASURE(0.0174532925),#574);
#574=(
NAMED_UNIT(*)
PLANE_ANGLE_UNIT()
SI_UNIT($,.RADIAN.)
);
#575=(
LENGTH_UNIT()
NAMED_UNIT(*)
SI_UNIT(.MILLI.,.METRE.)
);
ENDSEC;
END-ISO-10303-21;
