ISO-10303-21;
HEADER;
/* Generated by software containing ST-Developer
 * from STEP Tools, Inc. (www.steptools.com) 
 */
/* OPTION: using custom schema-name function */

FILE_DESCRIPTION(
/* description */ (''),
/* implementation_level */ '2;1');

FILE_NAME(
/* name */ '2530_1_3d.stp',
/* time_stamp */ '2020-02-03T07:07:58+01:00',
/* author */ (''),
/* organization */ ('SMS'),
/* preprocessor_version */ 'ST-DEVELOPER v16.7',
/* originating_system */ 'SIEMENS PLM Software NX 12.0',
/* authorisation */ '');

FILE_SCHEMA (('AUTOMOTIVE_DESIGN { 1 0 10303 214 3 1 1 1 }'));
ENDSEC;

DATA;
#10=CONSTRUCTIVE_GEOMETRY_REPRESENTATION_RELATIONSHIP(
'supplemental geometry','',#24,#11);
#11=CONSTRUCTIVE_GEOMETRY_REPRESENTATION('supplemental geometry',(#340,
#341,#342),#628);
#12=SHAPE_REPRESENTATION_RELATIONSHIP('None',
'relationship between 2530_1_3D-None and 2530_1_3D-None',#24,#13);
#13=ADVANCED_BREP_SHAPE_REPRESENTATION('2530_1_3D-None',(#30),#628);
#14=SHAPE_DEFINITION_REPRESENTATION(#15,#24);
#15=PRODUCT_DEFINITION_SHAPE('','',#16);
#16=PRODUCT_DEFINITION(' ','',#18,#17);
#17=PRODUCT_DEFINITION_CONTEXT('part definition',#23,'design');
#18=PRODUCT_DEFINITION_FORMATION_WITH_SPECIFIED_SOURCE(' ',' ',#20,
 .NOT_KNOWN.);
#19=PRODUCT_RELATED_PRODUCT_CATEGORY('part','',(#20));
#20=PRODUCT('2530_1_3D','2530_1_3D',' ',(#21));
#21=PRODUCT_CONTEXT(' ',#23,'mechanical');
#22=APPLICATION_PROTOCOL_DEFINITION('international standard',
'automotive_design',2010,#23);
#23=APPLICATION_CONTEXT(
'core data for automotive mechanical design processes');
#24=SHAPE_REPRESENTATION('2530_1_3D-None',(#339),#628);
#25=SURFACE_STYLE_USAGE(.BOTH.,#26);
#26=SURFACE_SIDE_STYLE('',(#27));
#27=SURFACE_STYLE_FILL_AREA(#28);
#28=FILL_AREA_STYLE('',(#29));
#29=FILL_AREA_STYLE_COLOUR('',#335);
#30=MANIFOLD_SOLID_BREP('NOCUT',#31);
#31=CLOSED_SHELL('',(#74,#75,#76,#77,#78,#79,#80,#81,#82,#83,#84,#85,#86,
#87,#88,#89,#90,#91,#92,#93,#94,#95));
#32=(
BOUNDED_SURFACE()
B_SPLINE_SURFACE(3,3,((#592,#593,#594,#595,#596,#597,#598),(#599,#600,#601,
#602,#603,#604,#605),(#606,#607,#608,#609,#610,#611,#612),(#613,#614,#615,
#616,#617,#618,#619)),.UNSPECIFIED.,.F.,.T.,.F.)
B_SPLINE_SURFACE_WITH_KNOTS((4,4),(1,3,3,3,1),(0.,1.),(-0.5,0.,0.5,1.,1.5),
 .UNSPECIFIED.)
GEOMETRIC_REPRESENTATION_ITEM()
RATIONAL_B_SPLINE_SURFACE(((1.,0.333333333333333,0.333333333333333,1.,0.333333333333333,
0.333333333333333,1.),(0.996347930245516,0.332115976748505,0.332115976748505,
0.996347930245516,0.332115976748505,0.332115976748505,0.996347930245516),
(0.996347930245516,0.332115976748505,0.332115976748505,0.996347930245516,
0.332115976748505,0.332115976748505,0.996347930245516),(1.,0.333333333333333,
0.333333333333333,1.,0.333333333333333,0.333333333333333,1.)))
REPRESENTATION_ITEM('')
SURFACE()
);
#33=TOROIDAL_SURFACE('',#385,20.5,0.5);
#34=TOROIDAL_SURFACE('',#386,13.9999999999999,1.);
#35=TOROIDAL_SURFACE('',#387,20.,1.);
#36=TOROIDAL_SURFACE('',#388,20.5,0.5);
#37=TOROIDAL_SURFACE('',#391,10.0514831366348,1.2);
#38=PLANE('',#367);
#39=PLANE('',#368);
#40=PLANE('',#370);
#41=PLANE('',#390);
#42=B_SPLINE_CURVE_WITH_KNOTS('',3,(#540,#541,#542,#543),.UNSPECIFIED.,
 .F.,.F.,(4,4),(0.,1.),.UNSPECIFIED.);
#43=B_SPLINE_CURVE_WITH_KNOTS('',3,(#548,#549,#550,#551),.UNSPECIFIED.,
 .F.,.F.,(4,4),(0.,1.),.UNSPECIFIED.);
#44=CONICAL_SURFACE('',#348,20.,1.43916666666667);
#45=CONICAL_SURFACE('',#351,8.5,1.43916666666667);
#46=CONICAL_SURFACE('',#354,20.,1.43916666666667);
#47=CONICAL_SURFACE('',#357,8.5,1.43916666666667);
#48=CONICAL_SURFACE('',#362,20.,1.43916666666667);
#49=CONICAL_SURFACE('',#365,8.5,1.43916666666667);
#50=CONICAL_SURFACE('',#374,10.1729977297885,11.9999999999999);
#51=CONICAL_SURFACE('',#380,13.,70.);
#52=FACE_OUTER_BOUND('',#126,.T.);
#53=FACE_OUTER_BOUND('',#127,.T.);
#54=FACE_OUTER_BOUND('',#128,.T.);
#55=FACE_OUTER_BOUND('',#129,.T.);
#56=FACE_OUTER_BOUND('',#130,.T.);
#57=FACE_OUTER_BOUND('',#131,.T.);
#58=FACE_OUTER_BOUND('',#132,.T.);
#59=FACE_OUTER_BOUND('',#135,.T.);
#60=FACE_OUTER_BOUND('',#136,.T.);
#61=FACE_OUTER_BOUND('',#155,.T.);
#62=LINE('',#516,#68);
#63=LINE('',#520,#69);
#64=LINE('',#526,#70);
#65=LINE('',#532,#71);
#66=LINE('',#538,#72);
#67=LINE('',#555,#73);
#68=VECTOR('',#408,1.);
#69=VECTOR('',#411,1.);
#70=VECTOR('',#418,1.);
#71=VECTOR('',#425,1.);
#72=VECTOR('',#432,1.);
#73=VECTOR('',#439,1.);
#74=ADVANCED_FACE('',(#100,#101),#96,.T.);
#75=ADVANCED_FACE('',(#52),#44,.T.);
#76=ADVANCED_FACE('',(#53),#45,.T.);
#77=ADVANCED_FACE('',(#54),#46,.T.);
#78=ADVANCED_FACE('',(#55),#47,.T.);
#79=ADVANCED_FACE('',(#56),#48,.T.);
#80=ADVANCED_FACE('',(#57),#49,.T.);
#81=ADVANCED_FACE('',(#58),#38,.F.);
#82=ADVANCED_FACE('',(#102,#103),#39,.T.);
#83=ADVANCED_FACE('',(#59),#40,.F.);
#84=ADVANCED_FACE('',(#60),#97,.F.);
#85=ADVANCED_FACE('AR_BY_CN_IB_SU_2',(#104,#105),#50,.T.);
#86=ADVANCED_FACE('AR_BY_CN_IB_SU_3',(#106,#107),#98,.T.);
#87=ADVANCED_FACE('AR_BY_CN_IB_SU_4',(#108,#109),#51,.T.);
#88=ADVANCED_FACE('AR_BY_CN_IB_SU_5',(#110,#111),#99,.T.);
#89=ADVANCED_FACE('AR_BY_CN_IB_SU_61',(#112,#113),#33,.F.);
#90=ADVANCED_FACE('AR_BY_CN_IB_SU_21',(#114,#115),#32,.T.);
#91=ADVANCED_FACE('AR_BY_CN_IB_SU_31',(#116,#117),#34,.F.);
#92=ADVANCED_FACE('AR_BY_CN_IB_SU_41',(#118,#119),#35,.T.);
#93=ADVANCED_FACE('AR_BY_CN_IB_SU_51',(#120,#121),#36,.T.);
#94=ADVANCED_FACE('AR_BY_CN_SU_1_1',(#61),#41,.F.);
#95=ADVANCED_FACE('AR_BY_CN_SU_11',(#122,#123),#37,.T.);
#96=CYLINDRICAL_SURFACE('',#345,20.);
#97=CYLINDRICAL_SURFACE('',#371,4.);
#98=CYLINDRICAL_SURFACE('',#377,12.9999999999999);
#99=CYLINDRICAL_SURFACE('',#383,21.);
#100=FACE_BOUND('',#124,.T.);
#101=FACE_BOUND('',#125,.T.);
#102=FACE_BOUND('',#133,.T.);
#103=FACE_BOUND('',#134,.T.);
#104=FACE_BOUND('',#137,.T.);
#105=FACE_BOUND('',#138,.T.);
#106=FACE_BOUND('',#139,.T.);
#107=FACE_BOUND('',#140,.T.);
#108=FACE_BOUND('',#141,.T.);
#109=FACE_BOUND('',#142,.T.);
#110=FACE_BOUND('',#143,.T.);
#111=FACE_BOUND('',#144,.T.);
#112=FACE_BOUND('',#145,.T.);
#113=FACE_BOUND('',#146,.T.);
#114=FACE_BOUND('',#147,.T.);
#115=FACE_BOUND('',#148,.T.);
#116=FACE_BOUND('',#149,.T.);
#117=FACE_BOUND('',#150,.T.);
#118=FACE_BOUND('',#151,.T.);
#119=FACE_BOUND('',#152,.T.);
#120=FACE_BOUND('',#153,.T.);
#121=FACE_BOUND('',#154,.T.);
#122=FACE_BOUND('',#156,.T.);
#123=FACE_BOUND('',#157,.T.);
#124=EDGE_LOOP('',(#158));
#125=EDGE_LOOP('',(#159));
#126=EDGE_LOOP('',(#160,#161,#162,#163));
#127=EDGE_LOOP('',(#164,#165,#166,#167));
#128=EDGE_LOOP('',(#168,#169,#170,#171));
#129=EDGE_LOOP('',(#172,#173,#174,#175));
#130=EDGE_LOOP('',(#176,#177,#178,#179,#180,#181,#182,#183));
#131=EDGE_LOOP('',(#184,#185,#186,#187));
#132=EDGE_LOOP('',(#188,#189,#190,#191,#192,#193,#194,#195));
#133=EDGE_LOOP('',(#196,#197,#198,#199,#200,#201));
#134=EDGE_LOOP('',(#202));
#135=EDGE_LOOP('',(#203,#204));
#136=EDGE_LOOP('',(#205,#206,#207,#208));
#137=EDGE_LOOP('',(#209));
#138=EDGE_LOOP('',(#210));
#139=EDGE_LOOP('',(#211));
#140=EDGE_LOOP('',(#212));
#141=EDGE_LOOP('',(#213));
#142=EDGE_LOOP('',(#214));
#143=EDGE_LOOP('',(#215));
#144=EDGE_LOOP('',(#216));
#145=EDGE_LOOP('',(#217));
#146=EDGE_LOOP('',(#218));
#147=EDGE_LOOP('',(#219));
#148=EDGE_LOOP('',(#220));
#149=EDGE_LOOP('',(#221));
#150=EDGE_LOOP('',(#222));
#151=EDGE_LOOP('',(#223));
#152=EDGE_LOOP('',(#224));
#153=EDGE_LOOP('',(#225));
#154=EDGE_LOOP('',(#226));
#155=EDGE_LOOP('',(#227));
#156=EDGE_LOOP('',(#228));
#157=EDGE_LOOP('',(#229));
#158=ORIENTED_EDGE('',*,*,#258,.T.);
#159=ORIENTED_EDGE('',*,*,#259,.T.);
#160=ORIENTED_EDGE('',*,*,#260,.F.);
#161=ORIENTED_EDGE('',*,*,#261,.F.);
#162=ORIENTED_EDGE('',*,*,#262,.T.);
#163=ORIENTED_EDGE('',*,*,#263,.T.);
#164=ORIENTED_EDGE('',*,*,#264,.F.);
#165=ORIENTED_EDGE('',*,*,#263,.F.);
#166=ORIENTED_EDGE('',*,*,#265,.T.);
#167=ORIENTED_EDGE('',*,*,#266,.T.);
#168=ORIENTED_EDGE('',*,*,#267,.F.);
#169=ORIENTED_EDGE('',*,*,#266,.F.);
#170=ORIENTED_EDGE('',*,*,#268,.T.);
#171=ORIENTED_EDGE('',*,*,#269,.T.);
#172=ORIENTED_EDGE('',*,*,#270,.F.);
#173=ORIENTED_EDGE('',*,*,#269,.F.);
#174=ORIENTED_EDGE('',*,*,#271,.T.);
#175=ORIENTED_EDGE('',*,*,#272,.T.);
#176=ORIENTED_EDGE('',*,*,#273,.F.);
#177=ORIENTED_EDGE('',*,*,#274,.F.);
#178=ORIENTED_EDGE('',*,*,#275,.F.);
#179=ORIENTED_EDGE('',*,*,#276,.T.);
#180=ORIENTED_EDGE('',*,*,#277,.T.);
#181=ORIENTED_EDGE('',*,*,#278,.F.);
#182=ORIENTED_EDGE('',*,*,#272,.F.);
#183=ORIENTED_EDGE('',*,*,#279,.T.);
#184=ORIENTED_EDGE('',*,*,#280,.F.);
#185=ORIENTED_EDGE('',*,*,#277,.F.);
#186=ORIENTED_EDGE('',*,*,#281,.T.);
#187=ORIENTED_EDGE('',*,*,#261,.T.);
#188=ORIENTED_EDGE('',*,*,#276,.F.);
#189=ORIENTED_EDGE('',*,*,#282,.T.);
#190=ORIENTED_EDGE('',*,*,#279,.F.);
#191=ORIENTED_EDGE('',*,*,#271,.F.);
#192=ORIENTED_EDGE('',*,*,#268,.F.);
#193=ORIENTED_EDGE('',*,*,#265,.F.);
#194=ORIENTED_EDGE('',*,*,#262,.F.);
#195=ORIENTED_EDGE('',*,*,#281,.F.);
#196=ORIENTED_EDGE('',*,*,#280,.T.);
#197=ORIENTED_EDGE('',*,*,#260,.T.);
#198=ORIENTED_EDGE('',*,*,#264,.T.);
#199=ORIENTED_EDGE('',*,*,#267,.T.);
#200=ORIENTED_EDGE('',*,*,#270,.T.);
#201=ORIENTED_EDGE('',*,*,#278,.T.);
#202=ORIENTED_EDGE('',*,*,#258,.F.);
#203=ORIENTED_EDGE('',*,*,#274,.T.);
#204=ORIENTED_EDGE('',*,*,#283,.F.);
#205=ORIENTED_EDGE('',*,*,#273,.T.);
#206=ORIENTED_EDGE('',*,*,#282,.F.);
#207=ORIENTED_EDGE('',*,*,#275,.T.);
#208=ORIENTED_EDGE('',*,*,#283,.T.);
#209=ORIENTED_EDGE('',*,*,#284,.T.);
#210=ORIENTED_EDGE('',*,*,#285,.T.);
#211=ORIENTED_EDGE('',*,*,#286,.T.);
#212=ORIENTED_EDGE('',*,*,#287,.T.);
#213=ORIENTED_EDGE('',*,*,#288,.T.);
#214=ORIENTED_EDGE('',*,*,#289,.T.);
#215=ORIENTED_EDGE('',*,*,#290,.T.);
#216=ORIENTED_EDGE('',*,*,#291,.T.);
#217=ORIENTED_EDGE('',*,*,#292,.F.);
#218=ORIENTED_EDGE('',*,*,#259,.F.);
#219=ORIENTED_EDGE('',*,*,#285,.F.);
#220=ORIENTED_EDGE('',*,*,#287,.F.);
#221=ORIENTED_EDGE('',*,*,#286,.F.);
#222=ORIENTED_EDGE('',*,*,#289,.F.);
#223=ORIENTED_EDGE('',*,*,#288,.F.);
#224=ORIENTED_EDGE('',*,*,#291,.F.);
#225=ORIENTED_EDGE('',*,*,#290,.F.);
#226=ORIENTED_EDGE('',*,*,#292,.T.);
#227=ORIENTED_EDGE('',*,*,#293,.F.);
#228=ORIENTED_EDGE('',*,*,#284,.F.);
#229=ORIENTED_EDGE('',*,*,#293,.T.);
#230=VERTEX_POINT('',#509);
#231=VERTEX_POINT('',#511);
#232=VERTEX_POINT('',#514);
#233=VERTEX_POINT('',#515);
#234=VERTEX_POINT('',#517);
#235=VERTEX_POINT('',#519);
#236=VERTEX_POINT('',#523);
#237=VERTEX_POINT('',#525);
#238=VERTEX_POINT('',#529);
#239=VERTEX_POINT('',#531);
#240=VERTEX_POINT('',#535);
#241=VERTEX_POINT('',#537);
#242=VERTEX_POINT('',#544);
#243=VERTEX_POINT('',#545);
#244=VERTEX_POINT('',#547);
#245=VERTEX_POINT('',#552);
#246=VERTEX_POINT('',#554);
#247=VERTEX_POINT('',#556);
#248=VERTEX_POINT('',#570);
#249=VERTEX_POINT('',#572);
#250=VERTEX_POINT('',#575);
#251=VERTEX_POINT('',#577);
#252=VERTEX_POINT('',#580);
#253=VERTEX_POINT('',#582);
#254=VERTEX_POINT('',#585);
#255=VERTEX_POINT('',#587);
#256=VERTEX_POINT('',#590);
#257=VERTEX_POINT('',#624);
#258=EDGE_CURVE('',#230,#230,#294,.T.);
#259=EDGE_CURVE('',#231,#231,#295,.T.);
#260=EDGE_CURVE('',#232,#233,#296,.T.);
#261=EDGE_CURVE('',#234,#232,#62,.T.);
#262=EDGE_CURVE('',#234,#235,#297,.T.);
#263=EDGE_CURVE('',#235,#233,#63,.T.);
#264=EDGE_CURVE('',#233,#236,#298,.T.);
#265=EDGE_CURVE('',#235,#237,#299,.T.);
#266=EDGE_CURVE('',#237,#236,#64,.T.);
#267=EDGE_CURVE('',#236,#238,#300,.T.);
#268=EDGE_CURVE('',#237,#239,#301,.T.);
#269=EDGE_CURVE('',#239,#238,#65,.T.);
#270=EDGE_CURVE('',#238,#240,#302,.T.);
#271=EDGE_CURVE('',#239,#241,#303,.T.);
#272=EDGE_CURVE('',#241,#240,#66,.T.);
#273=EDGE_CURVE('',#242,#243,#42,.T.);
#274=EDGE_CURVE('',#244,#242,#304,.T.);
#275=EDGE_CURVE('',#245,#244,#43,.T.);
#276=EDGE_CURVE('',#245,#246,#305,.T.);
#277=EDGE_CURVE('',#246,#247,#67,.T.);
#278=EDGE_CURVE('',#240,#247,#306,.T.);
#279=EDGE_CURVE('',#241,#243,#307,.T.);
#280=EDGE_CURVE('',#247,#232,#308,.T.);
#281=EDGE_CURVE('',#246,#234,#309,.T.);
#282=EDGE_CURVE('',#245,#243,#310,.T.);
#283=EDGE_CURVE('',#244,#242,#311,.T.);
#284=EDGE_CURVE('',#248,#248,#312,.T.);
#285=EDGE_CURVE('',#249,#249,#313,.T.);
#286=EDGE_CURVE('',#250,#250,#314,.T.);
#287=EDGE_CURVE('',#251,#251,#315,.T.);
#288=EDGE_CURVE('',#252,#252,#316,.T.);
#289=EDGE_CURVE('',#253,#253,#317,.T.);
#290=EDGE_CURVE('',#254,#254,#318,.T.);
#291=EDGE_CURVE('',#255,#255,#319,.T.);
#292=EDGE_CURVE('',#256,#256,#320,.T.);
#293=EDGE_CURVE('',#257,#257,#321,.T.);
#294=CIRCLE('',#343,20.);
#295=CIRCLE('',#344,20.);
#296=CIRCLE('',#346,20.);
#297=CIRCLE('',#347,19.3970364630094);
#298=CIRCLE('',#349,8.5);
#299=CIRCLE('',#350,7.89703646300946);
#300=CIRCLE('',#352,20.);
#301=CIRCLE('',#353,19.3970364630094);
#302=CIRCLE('',#355,8.5);
#303=CIRCLE('',#356,7.89703646300946);
#304=CIRCLE('',#358,19.5025550819828);
#305=CIRCLE('',#359,19.3970364630094);
#306=CIRCLE('',#360,20.);
#307=CIRCLE('',#361,19.3970364630094);
#308=CIRCLE('',#363,8.5);
#309=CIRCLE('',#364,7.89703646300946);
#310=CIRCLE('',#366,4.);
#311=CIRCLE('',#369,4.);
#312=CIRCLE('',#372,11.2252602575154);
#313=CIRCLE('',#373,12.562952014676);
#314=CIRCLE('',#375,12.9999999999999);
#315=CIRCLE('',#376,12.9999999999999);
#316=CIRCLE('',#378,20.3420201433257);
#317=CIRCLE('',#379,13.6579798566742);
#318=CIRCLE('',#381,21.);
#319=CIRCLE('',#382,21.);
#320=CIRCLE('',#384,20.5);
#321=CIRCLE('',#389,10.0514831366348);
#322=PRESENTATION_LAYER_ASSIGNMENT('1','Layer 1',(#340,#341,#342,#30));
#323=STYLED_ITEM('',(#327),#340);
#324=STYLED_ITEM('',(#328),#341);
#325=STYLED_ITEM('',(#329),#342);
#326=STYLED_ITEM('',(#330),#30);
#327=PRESENTATION_STYLE_ASSIGNMENT((#331));
#328=PRESENTATION_STYLE_ASSIGNMENT((#332));
#329=PRESENTATION_STYLE_ASSIGNMENT((#333));
#330=PRESENTATION_STYLE_ASSIGNMENT((#25));
#331=CURVE_STYLE('',#336,POSITIVE_LENGTH_MEASURE(0.13),#334);
#332=CURVE_STYLE('',#337,POSITIVE_LENGTH_MEASURE(0.13),#334);
#333=CURVE_STYLE('',#338,POSITIVE_LENGTH_MEASURE(0.13),#334);
#334=COLOUR_RGB('Strong Emerald',0.,0.803921568627451,0.525490196078431);
#335=COLOUR_RGB('TLS_NOCUT',0.499992370489052,0.499992370489052,0.499992370489052);
#336=DRAUGHTING_PRE_DEFINED_CURVE_FONT('continuous');
#337=DRAUGHTING_PRE_DEFINED_CURVE_FONT('continuous');
#338=DRAUGHTING_PRE_DEFINED_CURVE_FONT('continuous');
#339=AXIS2_PLACEMENT_3D('',#504,#392,#393);
#340=AXIS2_PLACEMENT_3D('PCS',#505,#394,#395);
#341=AXIS2_PLACEMENT_3D('MCS',#506,#396,#397);
#342=AXIS2_PLACEMENT_3D('CSW',#507,#398,#399);
#343=AXIS2_PLACEMENT_3D('',#508,#400,#401);
#344=AXIS2_PLACEMENT_3D('',#510,#402,#403);
#345=AXIS2_PLACEMENT_3D('',#512,#404,#405);
#346=AXIS2_PLACEMENT_3D('',#513,#406,#407);
#347=AXIS2_PLACEMENT_3D('',#518,#409,#410);
#348=AXIS2_PLACEMENT_3D('',#521,#412,#413);
#349=AXIS2_PLACEMENT_3D('',#522,#414,#415);
#350=AXIS2_PLACEMENT_3D('',#524,#416,#417);
#351=AXIS2_PLACEMENT_3D('',#527,#419,#420);
#352=AXIS2_PLACEMENT_3D('',#528,#421,#422);
#353=AXIS2_PLACEMENT_3D('',#530,#423,#424);
#354=AXIS2_PLACEMENT_3D('',#533,#426,#427);
#355=AXIS2_PLACEMENT_3D('',#534,#428,#429);
#356=AXIS2_PLACEMENT_3D('',#536,#430,#431);
#357=AXIS2_PLACEMENT_3D('',#539,#433,#434);
#358=AXIS2_PLACEMENT_3D('',#546,#435,#436);
#359=AXIS2_PLACEMENT_3D('',#553,#437,#438);
#360=AXIS2_PLACEMENT_3D('',#557,#440,#441);
#361=AXIS2_PLACEMENT_3D('',#558,#442,#443);
#362=AXIS2_PLACEMENT_3D('',#559,#444,#445);
#363=AXIS2_PLACEMENT_3D('',#560,#446,#447);
#364=AXIS2_PLACEMENT_3D('',#561,#448,#449);
#365=AXIS2_PLACEMENT_3D('',#562,#450,#451);
#366=AXIS2_PLACEMENT_3D('',#563,#452,#453);
#367=AXIS2_PLACEMENT_3D('',#564,#454,#455);
#368=AXIS2_PLACEMENT_3D('',#565,#456,#457);
#369=AXIS2_PLACEMENT_3D('',#566,#458,#459);
#370=AXIS2_PLACEMENT_3D('',#567,#460,#461);
#371=AXIS2_PLACEMENT_3D('',#568,#462,#463);
#372=AXIS2_PLACEMENT_3D('',#569,#464,#465);
#373=AXIS2_PLACEMENT_3D('',#571,#466,#467);
#374=AXIS2_PLACEMENT_3D('',#573,#468,#469);
#375=AXIS2_PLACEMENT_3D('',#574,#470,#471);
#376=AXIS2_PLACEMENT_3D('',#576,#472,#473);
#377=AXIS2_PLACEMENT_3D('',#578,#474,#475);
#378=AXIS2_PLACEMENT_3D('',#579,#476,#477);
#379=AXIS2_PLACEMENT_3D('',#581,#478,#479);
#380=AXIS2_PLACEMENT_3D('',#583,#480,#481);
#381=AXIS2_PLACEMENT_3D('',#584,#482,#483);
#382=AXIS2_PLACEMENT_3D('',#586,#484,#485);
#383=AXIS2_PLACEMENT_3D('',#588,#486,#487);
#384=AXIS2_PLACEMENT_3D('',#589,#488,#489);
#385=AXIS2_PLACEMENT_3D('',#591,#490,#491);
#386=AXIS2_PLACEMENT_3D('',#620,#492,#493);
#387=AXIS2_PLACEMENT_3D('',#621,#494,#495);
#388=AXIS2_PLACEMENT_3D('',#622,#496,#497);
#389=AXIS2_PLACEMENT_3D('',#623,#498,#499);
#390=AXIS2_PLACEMENT_3D('',#625,#500,#501);
#391=AXIS2_PLACEMENT_3D('',#626,#502,#503);
#392=DIRECTION('',(0.,0.,1.));
#393=DIRECTION('',(1.,0.,0.));
#394=DIRECTION('',(0.,0.,1.));
#395=DIRECTION('',(1.,0.,0.));
#396=DIRECTION('',(0.,0.,1.));
#397=DIRECTION('',(1.,0.,0.));
#398=DIRECTION('',(0.,0.,1.));
#399=DIRECTION('',(1.,0.,0.));
#400=DIRECTION('',(0.,0.,-1.));
#401=DIRECTION('',(-1.,0.,0.));
#402=DIRECTION('',(0.,0.,1.));
#403=DIRECTION('',(-1.,0.,0.));
#404=DIRECTION('',(0.,0.,-1.));
#405=DIRECTION('',(-1.,0.,0.));
#406=DIRECTION('',(0.,0.,-1.));
#407=DIRECTION('',(-1.,0.,0.));
#408=DIRECTION('',(-0.0251112246842899,0.000466400186113526,-0.999684554679986));
#409=DIRECTION('',(0.,0.,-1.));
#410=DIRECTION('',(-1.,0.,0.));
#411=DIRECTION('',(-0.0130940393650178,0.0214321549869783,-0.999684554679986));
#412=DIRECTION('',(0.,0.,-1.));
#413=DIRECTION('',(-1.,0.,0.));
#414=DIRECTION('',(0.,0.,-1.));
#415=DIRECTION('',(-1.,0.,0.));
#416=DIRECTION('',(0.,0.,-1.));
#417=DIRECTION('',(-1.,0.,0.));
#418=DIRECTION('',(0.0129628683279737,0.0215117451405068,-0.999684554679986));
#419=DIRECTION('',(0.,0.,-1.));
#420=DIRECTION('',(-1.,0.,0.));
#421=DIRECTION('',(0.,0.,-1.));
#422=DIRECTION('',(-1.,0.,0.));
#423=DIRECTION('',(0.,0.,-1.));
#424=DIRECTION('',(-1.,0.,0.));
#425=DIRECTION('',(0.0251111519354021,0.000470300707684483,-0.999684554679986));
#426=DIRECTION('',(0.,0.,-1.));
#427=DIRECTION('',(-1.,0.,0.));
#428=DIRECTION('',(0.,0.,-1.));
#429=DIRECTION('',(-1.,0.,0.));
#430=DIRECTION('',(0.,0.,-1.));
#431=DIRECTION('',(-1.,0.,0.));
#432=DIRECTION('',(0.0120137709940597,-0.0220558482217481,-0.999684554679986));
#433=DIRECTION('',(0.,0.,-1.));
#434=DIRECTION('',(-1.,0.,0.));
#435=DIRECTION('',(0.,0.,1.));
#436=DIRECTION('',(-1.,0.,0.));
#437=DIRECTION('',(0.,0.,-1.));
#438=DIRECTION('',(-1.,0.,0.));
#439=DIRECTION('',(-0.0121516979326409,-0.0219801585897907,-0.999684554679986));
#440=DIRECTION('',(0.,0.,-1.));
#441=DIRECTION('',(-1.,0.,0.));
#442=DIRECTION('',(0.,0.,-1.));
#443=DIRECTION('',(-1.,0.,0.));
#444=DIRECTION('',(0.,0.,-1.));
#445=DIRECTION('',(-1.,0.,0.));
#446=DIRECTION('',(0.,0.,-1.));
#447=DIRECTION('',(-1.,0.,0.));
#448=DIRECTION('',(0.,0.,-1.));
#449=DIRECTION('',(-1.,0.,0.));
#450=DIRECTION('',(0.,0.,-1.));
#451=DIRECTION('',(-1.,0.,0.));
#452=DIRECTION('',(0.,0.,-1.));
#453=DIRECTION('',(-1.,0.,0.));
#454=DIRECTION('',(0.,0.,-1.));
#455=DIRECTION('',(-1.,0.,0.));
#456=DIRECTION('',(0.,0.,1.));
#457=DIRECTION('',(1.,0.,0.));
#458=DIRECTION('',(0.,0.,-1.));
#459=DIRECTION('',(-1.,0.,0.));
#460=DIRECTION('',(0.,0.,-1.));
#461=DIRECTION('',(-1.,0.,0.));
#462=DIRECTION('',(0.,0.,-1.));
#463=DIRECTION('',(-1.,0.,0.));
#464=DIRECTION('',(0.,0.,1.));
#465=DIRECTION('',(1.,0.,0.));
#466=DIRECTION('',(0.,0.,-1.));
#467=DIRECTION('',(-1.,0.,0.));
#468=DIRECTION('',(0.,0.,1.));
#469=DIRECTION('',(1.,0.,-9.34616930407286E-17));
#470=DIRECTION('',(0.,0.,-1.));
#471=DIRECTION('',(1.,0.,0.));
#472=DIRECTION('',(0.,0.,1.));
#473=DIRECTION('',(-1.,0.,0.));
#474=DIRECTION('',(0.,0.,1.));
#475=DIRECTION('',(1.,0.,0.));
#476=DIRECTION('',(0.,0.,-1.));
#477=DIRECTION('',(-1.,0.,0.));
#478=DIRECTION('',(0.,0.,1.));
#479=DIRECTION('',(1.,0.,0.));
#480=DIRECTION('',(0.,0.,1.));
#481=DIRECTION('',(1.,0.,2.01092574929393E-17));
#482=DIRECTION('',(0.,0.,-1.));
#483=DIRECTION('',(-1.,0.,0.));
#484=DIRECTION('',(0.,0.,1.));
#485=DIRECTION('',(-1.,0.,0.));
#486=DIRECTION('',(0.,0.,1.));
#487=DIRECTION('',(1.,0.,0.));
#488=DIRECTION('',(0.,0.,-1.));
#489=DIRECTION('',(-1.,0.,0.));
#490=DIRECTION('',(0.,0.,-1.));
#491=DIRECTION('',(-1.,0.,0.));
#492=DIRECTION('',(0.,0.,1.));
#493=DIRECTION('',(1.,0.,0.));
#494=DIRECTION('',(0.,0.,-1.));
#495=DIRECTION('',(-1.,0.,0.));
#496=DIRECTION('',(0.,0.,-1.));
#497=DIRECTION('',(-1.,0.,0.));
#498=DIRECTION('',(0.,0.,1.));
#499=DIRECTION('',(1.,0.,0.));
#500=DIRECTION('',(0.,0.,1.));
#501=DIRECTION('',(1.,0.,0.));
#502=DIRECTION('',(0.,0.,1.));
#503=DIRECTION('',(1.,0.,0.));
#504=CARTESIAN_POINT('',(0.,0.,0.));
#505=CARTESIAN_POINT('',(0.,0.,0.));
#506=CARTESIAN_POINT('',(0.,0.,0.));
#507=CARTESIAN_POINT('',(0.,0.,-36.));
#508=CARTESIAN_POINT('',(0.,0.,0.));
#509=CARTESIAN_POINT('',(-20.,0.,0.));
#510=CARTESIAN_POINT('',(0.,0.,-5.50000000000001));
#511=CARTESIAN_POINT('',(-20.,0.,-5.50000000000001));
#512=CARTESIAN_POINT('',(0.,0.,0.));
#513=CARTESIAN_POINT('',(5.95545434990689,-3.41355697722574,0.));
#514=CARTESIAN_POINT('',(-14.0410968398797,-3.04215353857228,0.));
#515=CARTESIAN_POINT('',(-4.47158103907076,13.653280251652,0.));
#516=CARTESIAN_POINT('',(-14.0410968398797,-3.04215353857228,-1.30664401377134E-16));
#517=CARTESIAN_POINT('',(-13.4382372782294,-3.05335067512333,24.));
#518=CARTESIAN_POINT('',(5.95545434990689,-3.41355697722574,24.));
#519=CARTESIAN_POINT('',(-4.15722493214758,13.1387462246137,24.));
#520=CARTESIAN_POINT('',(-4.47158103907076,13.653280251652,0.));
#521=CARTESIAN_POINT('',(5.95545434990689,-3.41355697722574,0.));
#522=CARTESIAN_POINT('',(-0.0400909987552516,6.39987442937897,0.));
#523=CARTESIAN_POINT('',(4.34700608320455,13.6802163989199,0.));
#524=CARTESIAN_POINT('',(-0.0400909987552516,6.39987442937897,24.));
#525=CARTESIAN_POINT('',(4.03579907453875,13.1637716054546,24.));
#526=CARTESIAN_POINT('',(4.34700608320455,13.6802163989199,0.));
#527=CARTESIAN_POINT('',(-0.0400909987552516,6.39987442937897,0.));
#528=CARTESIAN_POINT('',(-5.97557528611263,-3.45,0.));
#529=CARTESIAN_POINT('',(14.0209179723354,-3.07549050099937,0.));
#530=CARTESIAN_POINT('',(-5.97557528611263,-3.45,24.));
#531=CARTESIAN_POINT('',(13.4180601572094,-3.08678127960707,24.));
#532=CARTESIAN_POINT('',(14.0209179723354,-3.07549050099937,8.71096009180893E-17));
#533=CARTESIAN_POINT('',(-5.97557528611263,-3.45,0.));
#534=CARTESIAN_POINT('',(5.522408337495,-3.23465703807463,0.));
#535=CARTESIAN_POINT('',(9.58829702338366,-10.6991429007421,0.));
#536=CARTESIAN_POINT('',(5.522408337495,-3.23465703807463,24.));
#537=CARTESIAN_POINT('',(9.29987553831857,-10.1696355127927,24.));
#538=CARTESIAN_POINT('',(9.58829702338366,-10.6991429007421,0.));
#539=CARTESIAN_POINT('',(5.522408337495,-3.23465703807463,0.));
#540=CARTESIAN_POINT('',(3.04217367114143,-12.4028516879828,19.8));
#541=CARTESIAN_POINT('',(3.01536690869658,-12.3714515455493,21.2000133982658));
#542=CARTESIAN_POINT('',(2.98779256558135,-12.3401358046305,22.600014237919));
#543=CARTESIAN_POINT('',(2.95939263898617,-12.30890445946,24.));
#544=CARTESIAN_POINT('',(3.04217367114143,-12.4028516879828,19.8));
#545=CARTESIAN_POINT('',(2.95939263898617,-12.30890445946,24.));
#546=CARTESIAN_POINT('',(0.0215001154103373,6.86435324671078,19.8));
#547=CARTESIAN_POINT('',(-3.03706002783089,-12.39687372812,19.8));
#548=CARTESIAN_POINT('',(-2.95409439161902,-12.303089485095,24.));
#549=CARTESIAN_POINT('',(-2.98255568535731,-12.3342649162952,22.600014237919));
#550=CARTESIAN_POINT('',(-3.01019156319168,-12.365526366739,21.2000133982658));
#551=CARTESIAN_POINT('',(-3.03706002783089,-12.39687372812,19.8));
#552=CARTESIAN_POINT('',(-2.95409439161902,-12.303089485095,24.));
#553=CARTESIAN_POINT('',(0.0215001154103373,6.86435324671078,24.));
#554=CARTESIAN_POINT('',(-9.36339789043387,-10.1111795274681,24.));
#555=CARTESIAN_POINT('',(-9.65513066655617,-10.6388697910471,0.));
#556=CARTESIAN_POINT('',(-9.65513066655617,-10.6388697910471,0.));
#557=CARTESIAN_POINT('',(0.0215001154103373,6.86435324671078,0.));
#558=CARTESIAN_POINT('',(0.0215001154103373,6.86435324671078,24.));
#559=CARTESIAN_POINT('',(0.0215001154103373,6.86435324671078,0.));
#560=CARTESIAN_POINT('',(-5.54256258422041,-3.2,0.));
#561=CARTESIAN_POINT('',(-5.54256258422041,-3.2,24.));
#562=CARTESIAN_POINT('',(-5.54256258422041,-3.2,0.));
#563=CARTESIAN_POINT('',(0.,-15.,24.));
#564=CARTESIAN_POINT('',(2.95768167557582,1.49315872607661,24.));
#565=CARTESIAN_POINT('',(0.,0.,0.));
#566=CARTESIAN_POINT('',(0.,-15.,19.8));
#567=CARTESIAN_POINT('',(0.,-15.,19.8));
#568=CARTESIAN_POINT('',(0.,-15.,24.));
#569=CARTESIAN_POINT('',(0.,0.,-35.0494940289813));
#570=CARTESIAN_POINT('',(11.2252602575154,0.,-35.0494940289813));
#571=CARTESIAN_POINT('',(0.,0.,-28.7561491110411));
#572=CARTESIAN_POINT('',(-12.562952014676,0.,-28.7561491110411));
#573=CARTESIAN_POINT('',(0.,0.,-40.));
#574=CARTESIAN_POINT('',(0.,0.,-23.2002075382098));
#575=CARTESIAN_POINT('',(12.9999999999999,0.,-23.2002075382098));
#576=CARTESIAN_POINT('',(0.,0.,-24.597915294686));
#577=CARTESIAN_POINT('',(-12.9999999999999,0.,-24.597915294686));
#578=CARTESIAN_POINT('',(0.,0.,17.5765408163265));
#579=CARTESIAN_POINT('',(0.,0.,-19.8277232084466));
#580=CARTESIAN_POINT('',(-20.3420201433257,0.,-19.8277232084466));
#581=CARTESIAN_POINT('',(0.,0.,-22.2605149174239));
#582=CARTESIAN_POINT('',(13.6579798566742,0.,-22.2605149174239));
#583=CARTESIAN_POINT('',(0.,0.,-22.5));
#584=CARTESIAN_POINT('',(0.,0.,-6.50000000000001));
#585=CARTESIAN_POINT('',(-21.,0.,-6.50000000000001));
#586=CARTESIAN_POINT('',(0.,0.,-18.8880305876607));
#587=CARTESIAN_POINT('',(-21.,0.,-18.8880305876607));
#588=CARTESIAN_POINT('',(0.,0.,17.5765408163265));
#589=CARTESIAN_POINT('',(0.,0.,-6.00000000000001));
#590=CARTESIAN_POINT('',(-20.5,0.,-6.00000000000001));
#591=CARTESIAN_POINT('',(0.,0.,-5.50000000000001));
#592=CARTESIAN_POINT('',(-12.562952014676,0.,-28.7561491110411));
#593=CARTESIAN_POINT('',(-12.562952014676,25.125904029352,-28.7561491110411));
#594=CARTESIAN_POINT('',(12.562952014676,25.125904029352,-28.7561491110411));
#595=CARTESIAN_POINT('',(12.562952014676,0.,-28.7561491110411));
#596=CARTESIAN_POINT('',(12.562952014676,-25.125904029352,-28.7561491110411));
#597=CARTESIAN_POINT('',(-12.562952014676,-25.125904029352,-28.7561491110411));
#598=CARTESIAN_POINT('',(-12.562952014676,0.,-28.7561491110411));
#599=CARTESIAN_POINT('',(-12.8537833448012,0.,-27.3878952785544));
#600=CARTESIAN_POINT('',(-12.8537833448012,25.7075666896024,-27.3878952785544));
#601=CARTESIAN_POINT('',(12.8537833448012,25.7075666896024,-27.3878952785544));
#602=CARTESIAN_POINT('',(12.8537833448012,0.,-27.3878952785544));
#603=CARTESIAN_POINT('',(12.8537833448012,-25.7075666896024,-27.3878952785544));
#604=CARTESIAN_POINT('',(-12.8537833448012,-25.7075666896024,-27.3878952785544));
#605=CARTESIAN_POINT('',(-12.8537833448012,0.,-27.3878952785544));
#606=CARTESIAN_POINT('',(-12.9999999999999,0.,-25.9967367317168));
#607=CARTESIAN_POINT('',(-12.9999999999999,25.9999999999998,-25.9967367317168));
#608=CARTESIAN_POINT('',(12.9999999999999,25.9999999999998,-25.9967367317168));
#609=CARTESIAN_POINT('',(12.9999999999999,0.,-25.9967367317168));
#610=CARTESIAN_POINT('',(12.9999999999999,-25.9999999999998,-25.9967367317168));
#611=CARTESIAN_POINT('',(-12.9999999999999,-25.9999999999998,-25.9967367317168));
#612=CARTESIAN_POINT('',(-12.9999999999999,0.,-25.9967367317168));
#613=CARTESIAN_POINT('',(-12.9999999999999,0.,-24.597915294686));
#614=CARTESIAN_POINT('',(-12.9999999999999,25.9999999999998,-24.5979152946859));
#615=CARTESIAN_POINT('',(12.9999999999999,25.9999999999998,-24.5979152946859));
#616=CARTESIAN_POINT('',(12.9999999999999,0.,-24.597915294686));
#617=CARTESIAN_POINT('',(12.9999999999999,-25.9999999999998,-24.5979152946859));
#618=CARTESIAN_POINT('',(-12.9999999999999,-25.9999999999998,-24.5979152946859));
#619=CARTESIAN_POINT('',(-12.9999999999999,0.,-24.597915294686));
#620=CARTESIAN_POINT('',(0.,0.,-23.2002075382098));
#621=CARTESIAN_POINT('',(0.,0.,-18.8880305876607));
#622=CARTESIAN_POINT('',(0.,0.,-6.50000000000001));
#623=CARTESIAN_POINT('',(0.,0.,-36.));
#624=CARTESIAN_POINT('',(10.0514831366348,0.,-36.));
#625=CARTESIAN_POINT('',(0.,0.,-36.));
#626=CARTESIAN_POINT('',(0.,0.,-34.8));
#627=MECHANICAL_DESIGN_GEOMETRIC_PRESENTATION_REPRESENTATION('',(#323,#324,
#325,#326),#628);
#628=(
GEOMETRIC_REPRESENTATION_CONTEXT(3)
GLOBAL_UNCERTAINTY_ASSIGNED_CONTEXT((#629))
GLOBAL_UNIT_ASSIGNED_CONTEXT((#635,#631,#630))
REPRESENTATION_CONTEXT('2530_1_3d','TOP_LEVEL_ASSEMBLY_PART')
);
#629=UNCERTAINTY_MEASURE_WITH_UNIT(LENGTH_MEASURE(0.0508),#635,
'DISTANCE_ACCURACY_VALUE','Maximum Tolerance applied to model');
#630=(
NAMED_UNIT(*)
SI_UNIT($,.STERADIAN.)
SOLID_ANGLE_UNIT()
);
#631=(
CONVERSION_BASED_UNIT('DEGREE',#633)
NAMED_UNIT(#632)
PLANE_ANGLE_UNIT()
);
#632=DIMENSIONAL_EXPONENTS(0.,0.,0.,0.,0.,0.,0.);
#633=PLANE_ANGLE_MEASURE_WITH_UNIT(PLANE_ANGLE_MEASURE(0.0174532925),#634);
#634=(
NAMED_UNIT(*)
PLANE_ANGLE_UNIT()
SI_UNIT($,.RADIAN.)
);
#635=(
LENGTH_UNIT()
NAMED_UNIT(*)
SI_UNIT(.MILLI.,.METRE.)
);
ENDSEC;
END-ISO-10303-21;
