ISO-10303-21;
HEADER;
/* Generated by software containing ST-Developer
 * from STEP Tools, Inc. (www.steptools.com) 
 */
/* OPTION: using custom schema-name function */

FILE_DESCRIPTION(
/* description */ (''),
/* implementation_level */ '2;1');

FILE_NAME(
/* name */ 'aaa339346_b.stp',
/* time_stamp */ '2019-09-25T15:49:34+02:00',
/* author */ (''),
/* organization */ ('SMS'),
/* preprocessor_version */ 'ST-DEVELOPER v16.7',
/* originating_system */ 'SIEMENS PLM Software NX 12.0',
/* authorisation */ '');

FILE_SCHEMA (('AUTOMOTIVE_DESIGN { 1 0 10303 214 3 1 1 1 }'));
ENDSEC;

DATA;
#10=CONSTRUCTIVE_GEOMETRY_REPRESENTATION_RELATIONSHIP(
'supplemental geometry','',#26,#11);
#11=CONSTRUCTIVE_GEOMETRY_REPRESENTATION('supplemental geometry',(#231,
#232),#427);
#12=GEOMETRICALLY_BOUNDED_WIREFRAME_SHAPE_REPRESENTATION(
'AAA339346_B-None',(#27),#427);
#13=SHAPE_REPRESENTATION_RELATIONSHIP('None',
'relationship between AAA339346_B-None and AAA339346_B-None',#26,#15);
#14=SHAPE_REPRESENTATION_RELATIONSHIP('None',
'relationship between AAA339346_B-None and AAA339346_B-None',#26,#12);
#15=ADVANCED_BREP_SHAPE_REPRESENTATION('AAA339346_B-None',(#33),#427);
#16=SHAPE_DEFINITION_REPRESENTATION(#17,#26);
#17=PRODUCT_DEFINITION_SHAPE('','',#18);
#18=PRODUCT_DEFINITION(' ','',#20,#19);
#19=PRODUCT_DEFINITION_CONTEXT('part definition',#25,'design');
#20=PRODUCT_DEFINITION_FORMATION_WITH_SPECIFIED_SOURCE(' ',' ',#22,
 .NOT_KNOWN.);
#21=PRODUCT_RELATED_PRODUCT_CATEGORY('part','',(#22));
#22=PRODUCT('AAA339346_B','AAA339346_B','MASTER_INSERT',(#23));
#23=PRODUCT_CONTEXT(' ',#25,'mechanical');
#24=APPLICATION_PROTOCOL_DEFINITION('international standard',
'automotive_design',2010,#25);
#25=APPLICATION_CONTEXT(
'core data for automotive mechanical design processes');
#26=SHAPE_REPRESENTATION('AAA339346_B-None',(#230),#427);
#27=GEOMETRIC_CURVE_SET('None',(#310,#311,#210));
#28=SURFACE_STYLE_USAGE(.BOTH.,#29);
#29=SURFACE_SIDE_STYLE('',(#30));
#30=SURFACE_STYLE_FILL_AREA(#31);
#31=FILL_AREA_STYLE('',(#32));
#32=FILL_AREA_STYLE_COLOUR('',#229);
#33=MANIFOLD_SOLID_BREP('',#34);
#34=CLOSED_SHELL('',(#47,#48,#49,#50,#51,#52,#53,#54,#55,#56));
#35=CYLINDRICAL_SURFACE('',#249,0.2);
#36=CYLINDRICAL_SURFACE('',#250,0.2);
#37=ELLIPSE('',#243,0.201650669080384,0.2);
#38=ELLIPSE('',#244,0.201650307146147,0.2);
#39=ELLIPSE('',#246,0.201650669080384,0.2);
#40=ELLIPSE('',#247,0.201650307146147,0.2);
#41=CONICAL_SURFACE('',#237,0.4,6.99999999999999);
#42=CONICAL_SURFACE('',#242,0.397,6.99999999999999);
#43=CIRCLE('',#235,0.4);
#44=CIRCLE('',#236,0.107772745051087);
#45=CIRCLE('',#240,0.397);
#46=CIRCLE('',#241,0.104772745051087);
#47=ADVANCED_FACE('',(#63),#57,.F.);
#48=ADVANCED_FACE('',(#64),#58,.F.);
#49=ADVANCED_FACE('',(#65),#41,.T.);
#50=ADVANCED_FACE('',(#66),#59,.F.);
#51=ADVANCED_FACE('',(#67),#60,.F.);
#52=ADVANCED_FACE('',(#68),#42,.T.);
#53=ADVANCED_FACE('',(#69),#61,.T.);
#54=ADVANCED_FACE('',(#70),#62,.F.);
#55=ADVANCED_FACE('',(#71),#35,.T.);
#56=ADVANCED_FACE('',(#72),#36,.T.);
#57=PLANE('',#233);
#58=PLANE('',#234);
#59=PLANE('',#238);
#60=PLANE('',#239);
#61=PLANE('',#245);
#62=PLANE('',#248);
#63=FACE_OUTER_BOUND('',#73,.T.);
#64=FACE_OUTER_BOUND('',#74,.T.);
#65=FACE_OUTER_BOUND('',#75,.T.);
#66=FACE_OUTER_BOUND('',#76,.T.);
#67=FACE_OUTER_BOUND('',#77,.T.);
#68=FACE_OUTER_BOUND('',#78,.T.);
#69=FACE_OUTER_BOUND('',#79,.T.);
#70=FACE_OUTER_BOUND('',#80,.T.);
#71=FACE_OUTER_BOUND('',#81,.T.);
#72=FACE_OUTER_BOUND('',#82,.T.);
#73=EDGE_LOOP('',(#83,#84,#85,#86));
#74=EDGE_LOOP('',(#87,#88,#89,#90));
#75=EDGE_LOOP('',(#91,#92,#93,#94));
#76=EDGE_LOOP('',(#95,#96,#97,#98));
#77=EDGE_LOOP('',(#99,#100,#101,#102));
#78=EDGE_LOOP('',(#103,#104,#105,#106));
#79=EDGE_LOOP('',(#107,#108,#109,#110,#111,#112,#113,#114));
#80=EDGE_LOOP('',(#115,#116,#117,#118,#119,#120,#121,#122));
#81=EDGE_LOOP('',(#123,#124,#125,#126));
#82=EDGE_LOOP('',(#127,#128,#129,#130));
#83=ORIENTED_EDGE('',*,*,#147,.T.);
#84=ORIENTED_EDGE('',*,*,#148,.T.);
#85=ORIENTED_EDGE('',*,*,#149,.F.);
#86=ORIENTED_EDGE('',*,*,#150,.T.);
#87=ORIENTED_EDGE('',*,*,#151,.F.);
#88=ORIENTED_EDGE('',*,*,#152,.T.);
#89=ORIENTED_EDGE('',*,*,#153,.T.);
#90=ORIENTED_EDGE('',*,*,#154,.F.);
#91=ORIENTED_EDGE('',*,*,#155,.T.);
#92=ORIENTED_EDGE('',*,*,#156,.F.);
#93=ORIENTED_EDGE('',*,*,#157,.F.);
#94=ORIENTED_EDGE('',*,*,#154,.T.);
#95=ORIENTED_EDGE('',*,*,#158,.T.);
#96=ORIENTED_EDGE('',*,*,#159,.T.);
#97=ORIENTED_EDGE('',*,*,#160,.F.);
#98=ORIENTED_EDGE('',*,*,#156,.T.);
#99=ORIENTED_EDGE('',*,*,#161,.F.);
#100=ORIENTED_EDGE('',*,*,#162,.T.);
#101=ORIENTED_EDGE('',*,*,#163,.T.);
#102=ORIENTED_EDGE('',*,*,#164,.F.);
#103=ORIENTED_EDGE('',*,*,#165,.T.);
#104=ORIENTED_EDGE('',*,*,#150,.F.);
#105=ORIENTED_EDGE('',*,*,#166,.F.);
#106=ORIENTED_EDGE('',*,*,#164,.T.);
#107=ORIENTED_EDGE('',*,*,#149,.T.);
#108=ORIENTED_EDGE('',*,*,#167,.T.);
#109=ORIENTED_EDGE('',*,*,#151,.T.);
#110=ORIENTED_EDGE('',*,*,#157,.T.);
#111=ORIENTED_EDGE('',*,*,#160,.T.);
#112=ORIENTED_EDGE('',*,*,#168,.T.);
#113=ORIENTED_EDGE('',*,*,#161,.T.);
#114=ORIENTED_EDGE('',*,*,#166,.T.);
#115=ORIENTED_EDGE('',*,*,#153,.F.);
#116=ORIENTED_EDGE('',*,*,#169,.T.);
#117=ORIENTED_EDGE('',*,*,#147,.F.);
#118=ORIENTED_EDGE('',*,*,#165,.F.);
#119=ORIENTED_EDGE('',*,*,#163,.F.);
#120=ORIENTED_EDGE('',*,*,#170,.T.);
#121=ORIENTED_EDGE('',*,*,#158,.F.);
#122=ORIENTED_EDGE('',*,*,#155,.F.);
#123=ORIENTED_EDGE('',*,*,#167,.F.);
#124=ORIENTED_EDGE('',*,*,#148,.F.);
#125=ORIENTED_EDGE('',*,*,#169,.F.);
#126=ORIENTED_EDGE('',*,*,#152,.F.);
#127=ORIENTED_EDGE('',*,*,#168,.F.);
#128=ORIENTED_EDGE('',*,*,#159,.F.);
#129=ORIENTED_EDGE('',*,*,#170,.F.);
#130=ORIENTED_EDGE('',*,*,#162,.F.);
#131=VERTEX_POINT('',#377);
#132=VERTEX_POINT('',#378);
#133=VERTEX_POINT('',#380);
#134=VERTEX_POINT('',#382);
#135=VERTEX_POINT('',#386);
#136=VERTEX_POINT('',#387);
#137=VERTEX_POINT('',#389);
#138=VERTEX_POINT('',#391);
#139=VERTEX_POINT('',#395);
#140=VERTEX_POINT('',#397);
#141=VERTEX_POINT('',#401);
#142=VERTEX_POINT('',#403);
#143=VERTEX_POINT('',#407);
#144=VERTEX_POINT('',#408);
#145=VERTEX_POINT('',#410);
#146=VERTEX_POINT('',#412);
#147=EDGE_CURVE('',#131,#132,#171,.T.);
#148=EDGE_CURVE('',#132,#133,#172,.T.);
#149=EDGE_CURVE('',#134,#133,#173,.T.);
#150=EDGE_CURVE('',#134,#131,#174,.T.);
#151=EDGE_CURVE('',#135,#136,#175,.T.);
#152=EDGE_CURVE('',#135,#137,#176,.T.);
#153=EDGE_CURVE('',#137,#138,#177,.T.);
#154=EDGE_CURVE('',#136,#138,#178,.T.);
#155=EDGE_CURVE('',#138,#139,#43,.T.);
#156=EDGE_CURVE('',#140,#139,#179,.T.);
#157=EDGE_CURVE('',#136,#140,#44,.T.);
#158=EDGE_CURVE('',#139,#141,#180,.T.);
#159=EDGE_CURVE('',#141,#142,#181,.T.);
#160=EDGE_CURVE('',#140,#142,#182,.T.);
#161=EDGE_CURVE('',#143,#144,#183,.T.);
#162=EDGE_CURVE('',#143,#145,#184,.T.);
#163=EDGE_CURVE('',#145,#146,#185,.T.);
#164=EDGE_CURVE('',#144,#146,#186,.T.);
#165=EDGE_CURVE('',#146,#131,#45,.T.);
#166=EDGE_CURVE('',#144,#134,#46,.T.);
#167=EDGE_CURVE('',#133,#135,#37,.T.);
#168=EDGE_CURVE('',#142,#143,#38,.T.);
#169=EDGE_CURVE('',#137,#132,#39,.T.);
#170=EDGE_CURVE('',#145,#141,#40,.T.);
#171=LINE('',#376,#187);
#172=LINE('',#379,#188);
#173=LINE('',#381,#189);
#174=LINE('',#383,#190);
#175=LINE('',#385,#191);
#176=LINE('',#388,#192);
#177=LINE('',#390,#193);
#178=LINE('',#392,#194);
#179=LINE('',#396,#195);
#180=LINE('',#400,#196);
#181=LINE('',#402,#197);
#182=LINE('',#404,#198);
#183=LINE('',#406,#199);
#184=LINE('',#409,#200);
#185=LINE('',#411,#201);
#186=LINE('',#413,#202);
#187=VECTOR('',#257,1.);
#188=VECTOR('',#258,1.);
#189=VECTOR('',#259,1.);
#190=VECTOR('',#260,1.);
#191=VECTOR('',#263,1.);
#192=VECTOR('',#264,1.);
#193=VECTOR('',#265,1.);
#194=VECTOR('',#266,1.);
#195=VECTOR('',#271,1.);
#196=VECTOR('',#276,1.);
#197=VECTOR('',#277,1.);
#198=VECTOR('',#278,1.);
#199=VECTOR('',#281,1.);
#200=VECTOR('',#282,1.);
#201=VECTOR('',#283,1.);
#202=VECTOR('',#284,1.);
#203=CURVE_STYLE('',#207,POSITIVE_LENGTH_MEASURE(0.18),#206);
#204=CURVE_STYLE('',#208,POSITIVE_LENGTH_MEASURE(0.18),#228);
#205=CURVE_STYLE('',#209,POSITIVE_LENGTH_MEASURE(0.18),#228);
#206=DRAUGHTING_PRE_DEFINED_COLOUR('blue');
#207=DRAUGHTING_PRE_DEFINED_CURVE_FONT('continuous');
#208=DRAUGHTING_PRE_DEFINED_CURVE_FONT('continuous');
#209=DRAUGHTING_PRE_DEFINED_CURVE_FONT('continuous');
#210=B_SPLINE_CURVE_WITH_KNOTS('CUTTING EDGE LINE',3,(#312,#313,#314,#315,
#316,#317,#318,#319,#320,#321,#322,#323,#324,#325,#326,#327,#328,#329,#330,
#331,#332,#333,#334,#335,#336,#337,#338,#339,#340,#341,#342,#343,#344,#345,
#346,#347,#348,#349,#350,#351,#352,#353,#354,#355,#356,#357,#358,#359,#360,
#361,#362,#363,#364,#365,#366,#367,#368,#369,#370,#371,#372,#373),
 .UNSPECIFIED.,.T.,.F.,(1,1,2,1,1,1,1,1,1,1,1,1,1,1,1,1,1,1,1,1,1,1,1,1,
1,1,1,1,1,1,1,1,1,1,1,1,1,1,1,1,1,1,1,1,1,1,1,1,1,1,1,1,1,1,1,1,1,1,1,1,
1,2,1,1),(-0.00608812314999996,-0.00304406157500003,0.,0.1181531708,0.23593711294125,
0.236121727270625,0.2363063416,0.2366737488375,0.237041156075,0.23777597055,
0.238510785025,0.2388781922625,0.2392455995,0.239430236921641,0.239614874343281,
0.35741354935,0.416497524275,0.474842949513438,0.475212224356719,0.4755814992,
0.476348477053125,0.47711545490625,0.4786494106125,0.481717322025,0.4847852334375,
0.48785314485,0.4909210562625,0.493988967675,0.4970568790875,0.49859083479375,
0.499357812646875,0.5001247905,0.500494022046406,0.500863253592812,0.61827888535,
0.677355932775,0.736063748653594,0.736248364426797,0.7364329802,0.7367999671375,
0.737166954075,0.73790092795,0.738634901825,0.7390018887625,0.7393688757,
0.739553468381016,0.739738061062031,0.85750819155,0.916577849475,0.974909136675938,
0.975278322037969,0.9756475074,0.97640852279375,0.9771695381875,0.978691568975,
0.98173563055,0.984779692125,0.9878237537,0.990867815275,0.99391187685,
0.996955938425,1.,1.1181531708,1.23593711294125),.UNSPECIFIED.);
#211=PRESENTATION_LAYER_ASSIGNMENT('1','Layer 1',(#310,#311,#210,#231,#232,
#33));
#212=STYLED_ITEM('',(#218),#310);
#213=STYLED_ITEM('',(#219),#311);
#214=STYLED_ITEM('',(#220),#210);
#215=STYLED_ITEM('',(#221),#231);
#216=STYLED_ITEM('',(#222),#232);
#217=STYLED_ITEM('',(#223),#33);
#218=PRESENTATION_STYLE_ASSIGNMENT((#224));
#219=PRESENTATION_STYLE_ASSIGNMENT((#225));
#220=PRESENTATION_STYLE_ASSIGNMENT((#203));
#221=PRESENTATION_STYLE_ASSIGNMENT((#204));
#222=PRESENTATION_STYLE_ASSIGNMENT((#205));
#223=PRESENTATION_STYLE_ASSIGNMENT((#28));
#224=POINT_STYLE('',#226,POSITIVE_LENGTH_MEASURE(3.),#228);
#225=POINT_STYLE('',#227,POSITIVE_LENGTH_MEASURE(3.),#228);
#226=PRE_DEFINED_POINT_MARKER_SYMBOL('plus');
#227=PRE_DEFINED_POINT_MARKER_SYMBOL('plus');
#228=COLOUR_RGB('Medium Weak Red',0.6,0.4,0.4);
#229=COLOUR_RGB('Pale Gray',0.8,0.8,0.8);
#230=AXIS2_PLACEMENT_3D('',#309,#251,#252);
#231=AXIS2_PLACEMENT_3D('MCS',#374,#253,#254);
#232=AXIS2_PLACEMENT_3D('PCS',#375,#255,#256);
#233=AXIS2_PLACEMENT_3D('',#384,#261,#262);
#234=AXIS2_PLACEMENT_3D('',#393,#267,#268);
#235=AXIS2_PLACEMENT_3D('',#394,#269,#270);
#236=AXIS2_PLACEMENT_3D('',#398,#272,#273);
#237=AXIS2_PLACEMENT_3D('',#399,#274,#275);
#238=AXIS2_PLACEMENT_3D('',#405,#279,#280);
#239=AXIS2_PLACEMENT_3D('',#414,#285,#286);
#240=AXIS2_PLACEMENT_3D('',#415,#287,#288);
#241=AXIS2_PLACEMENT_3D('',#416,#289,#290);
#242=AXIS2_PLACEMENT_3D('',#417,#291,#292);
#243=AXIS2_PLACEMENT_3D('',#418,#293,#294);
#244=AXIS2_PLACEMENT_3D('',#419,#295,#296);
#245=AXIS2_PLACEMENT_3D('',#420,#297,#298);
#246=AXIS2_PLACEMENT_3D('',#421,#299,#300);
#247=AXIS2_PLACEMENT_3D('',#422,#301,#302);
#248=AXIS2_PLACEMENT_3D('',#423,#303,#304);
#249=AXIS2_PLACEMENT_3D('',#424,#305,#306);
#250=AXIS2_PLACEMENT_3D('',#425,#307,#308);
#251=DIRECTION('',(0.,0.,1.));
#252=DIRECTION('',(1.,0.,0.));
#253=DIRECTION('',(0.,0.,1.));
#254=DIRECTION('',(0.,-1.,0.));
#255=DIRECTION('',(0.,0.,1.));
#256=DIRECTION('',(0.,-1.,0.));
#257=DIRECTION('',(0.573576436351046,-0.819152044288991,0.));
#258=DIRECTION('',(-0.121779472850605,-0.0383969203001168,-0.991814214711453));
#259=DIRECTION('',(0.573576436351047,-0.819152044288991,0.));
#260=DIRECTION('',(0.0998295217864836,0.0699013836907663,0.992546151641322));
#261=DIRECTION('',(-0.81304620916816,-0.569301084572375,0.121869343405147));
#262=DIRECTION('',(0.573576436351047,-0.819152044288991,0.));
#263=DIRECTION('',(9.72281176445936E-16,-1.,0.));
#264=DIRECTION('',(0.121779472850605,0.0383969203001168,0.991814214711453));
#265=DIRECTION('',(9.72281176445936E-16,-1.,0.));
#266=DIRECTION('',(0.121869343405147,0.,0.992546151641322));
#267=DIRECTION('',(-0.992546151641322,-9.65033939994711E-16,0.121869343405147));
#268=DIRECTION('',(0.121869343405147,0.,0.992546151641322));
#269=DIRECTION('',(0.,0.,-1.));
#270=DIRECTION('',(0.,-0.999999999999999,0.));
#271=DIRECTION('',(-0.0998783431074754,-0.0698316077439663,0.992546151641322));
#272=DIRECTION('',(0.,0.,-1.));
#273=DIRECTION('',(-1.,0.,0.));
#274=DIRECTION('',(0.,0.,1.));
#275=DIRECTION('',(1.83070061884409E-16,-1.,0.));
#276=DIRECTION('',(-0.573003889188237,0.819552648080131,0.));
#277=DIRECTION('',(0.12177969142781,0.0383502158543782,-0.991815994879932));
#278=DIRECTION('',(-0.573003889188237,0.819552648080131,0.));
#279=DIRECTION('',(0.813443826919389,0.568732805089295,0.121869343405147));
#280=DIRECTION('',(-0.573003889188237,0.819552648080131,0.));
#281=DIRECTION('',(-5.30467029455158E-16,1.,0.));
#282=DIRECTION('',(-0.12177969142781,-0.0383502158543782,0.991815994879932));
#283=DIRECTION('',(-5.30467029455158E-16,1.,0.));
#284=DIRECTION('',(-0.121869343405147,0.,0.992546151641322));
#285=DIRECTION('',(0.992546151641322,5.26513008658321E-16,0.121869343405147));
#286=DIRECTION('',(0.121869343405147,0.,-0.992546151641322));
#287=DIRECTION('',(0.,0.,-1.));
#288=DIRECTION('',(0.,-0.999999999999999,0.));
#289=DIRECTION('',(0.,0.,-1.));
#290=DIRECTION('',(-1.,0.,0.));
#291=DIRECTION('',(0.,0.,1.));
#292=DIRECTION('',(1.83074520426594E-16,-1.,0.));
#293=DIRECTION('',(0.,0.,-1.));
#294=DIRECTION('',(0.953716950748227,0.300705799504274,0.));
#295=DIRECTION('',(0.,0.,-1.));
#296=DIRECTION('',(-0.953821956153278,-0.300372561929239,0.));
#297=DIRECTION('',(0.,0.,-1.));
#298=DIRECTION('',(-1.,0.,0.));
#299=DIRECTION('',(0.,0.,1.));
#300=DIRECTION('',(0.953716950748227,0.300705799504274,0.));
#301=DIRECTION('',(0.,0.,1.));
#302=DIRECTION('',(-0.953821956153278,-0.300372561929239,0.));
#303=DIRECTION('',(0.,0.,-1.));
#304=DIRECTION('',(-1.,0.,0.));
#305=DIRECTION('',(0.121779472850605,0.0383969203001168,0.991814214711453));
#306=DIRECTION('',(0.992546151641323,0.,-0.121869343405147));
#307=DIRECTION('',(-0.12177969142781,-0.0383502158543782,0.991815994879932));
#308=DIRECTION('',(0.992546151641323,0.,0.121869343405147));
#309=CARTESIAN_POINT('',(0.,0.,0.));
#310=CARTESIAN_POINT('',(0.,0.,0.));
#311=CARTESIAN_POINT('',(-3.175,10.0698134975032,0.));
#312=CARTESIAN_POINT('',(-2.47680795292067,9.07269191714366,0.));
#313=CARTESIAN_POINT('',(-1.52081386343016,7.70739086378054,0.));
#314=CARTESIAN_POINT('',(0.340239240372212,5.04953158314395,0.));
#315=CARTESIAN_POINT('',(2.20274856726051,2.38959260040984,0.));
#316=CARTESIAN_POINT('',(3.13473134224761,1.05858325799402,0.));
#317=CARTESIAN_POINT('',(3.14058184372415,1.05031294502224,0.));
#318=CARTESIAN_POINT('',(3.14747601526899,1.03970478341401,0.));
#319=CARTESIAN_POINT('',(3.15710597379283,1.02191864857744,0.));
#320=CARTESIAN_POINT('',(3.16655807924851,0.998411927302126,0.));
#321=CARTESIAN_POINT('',(3.17229826916108,0.973734843551537,0.));
#322=CARTESIAN_POINT('',(3.1746115767859,0.95364177754777,0.));
#323=CARTESIAN_POINT('',(3.17504879970605,0.940997428366164,0.));
#324=CARTESIAN_POINT('',(3.175,0.930866439665521,0.));
#325=CARTESIAN_POINT('',(3.175,-0.694199186244684,0.));
#326=CARTESIAN_POINT('',(3.175,-3.12925846006951,0.));
#327=CARTESIAN_POINT('',(3.17500000000001,-6.36415472164701,0.));
#328=CARTESIAN_POINT('',(3.17500000000001,-7.98414201747624,0.));
#329=CARTESIAN_POINT('',(3.17500000000001,-8.79667483043135,0.));
#330=CARTESIAN_POINT('',(3.17510127901324,-8.81737915511867,0.));
#331=CARTESIAN_POINT('',(3.17415858053645,-8.84355218784396,0.));
#332=CARTESIAN_POINT('',(3.16915192209068,-8.88547859939227,0.));
#333=CARTESIAN_POINT('',(3.15177512170508,-8.95747335388305,0.));
#334=CARTESIAN_POINT('',(3.10296428731537,-9.05247129299241,0.));
#335=CARTESIAN_POINT('',(3.01182466564176,-9.14258123686025,0.));
#336=CARTESIAN_POINT('',(2.89717093932501,-9.19985911800956,0.));
#337=CARTESIAN_POINT('',(2.77038572568842,-9.21861390991489,0.));
#338=CARTESIAN_POINT('',(2.64405865917043,-9.19698742451325,0.));
#339=CARTESIAN_POINT('',(2.54962142197389,-9.14710040990157,0.));
#340=CARTESIAN_POINT('',(2.4941269448467,-9.09805389239023,0.));
#341=CARTESIAN_POINT('',(2.46599972777113,-9.06656182553228,0.));
#342=CARTESIAN_POINT('',(2.45023023810211,-9.04565229831862,0.));
#343=CARTESIAN_POINT('',(2.43845025564948,-9.02862696369881,0.));
#344=CARTESIAN_POINT('',(1.50739050967889,-7.69695628095351,0.));
#345=CARTESIAN_POINT('',(0.113710452429154,-5.70361172771913,0.));
#346=CARTESIAN_POINT('',(-1.73968035439356,-3.05275477487925,0.));
#347=CARTESIAN_POINT('',(-2.66928531951108,-1.72316482757574,0.));
#348=CARTESIAN_POINT('',(-3.13481519249638,-1.05732948620308,0.));
#349=CARTESIAN_POINT('',(-3.14065657810327,-1.04905975938787,0.));
#350=CARTESIAN_POINT('',(-3.14753750180039,-1.03845678472184,0.));
#351=CARTESIAN_POINT('',(-3.15714634408455,-1.02068557257078,0.));
#352=CARTESIAN_POINT('',(-3.16657727772313,-0.997201755862979,0.));
#353=CARTESIAN_POINT('',(-3.17230444939234,-0.972551570039397,0.));
#354=CARTESIAN_POINT('',(-3.17461247093154,-0.952481222061902,0.));
#355=CARTESIAN_POINT('',(-3.17504873131875,-0.939849047623321,0.));
#356=CARTESIAN_POINT('',(-3.175,-0.929725069578747,0.));
#357=CARTESIAN_POINT('',(-3.175,0.694946777058729,0.));
#358=CARTESIAN_POINT('',(-3.175,3.12941599725457,0.));
#359=CARTESIAN_POINT('',(-3.175,6.3635283919673,0.));
#360=CARTESIAN_POINT('',(-3.175,7.98312313908403,0.));
#361=CARTESIAN_POINT('',(-3.175,8.79545906240277,0.));
#362=CARTESIAN_POINT('',(-3.17510122604951,8.81607892912887,0.));
#363=CARTESIAN_POINT('',(-3.17416535605311,8.84208674178071,0.));
#364=CARTESIAN_POINT('',(-3.16919899087358,8.88368736324088,0.));
#365=CARTESIAN_POINT('',(-3.15196195750164,8.95512343429304,0.));
#366=CARTESIAN_POINT('',(-3.10354326076124,9.04938855550867,0.));
#367=CARTESIAN_POINT('',(-3.01313230750688,9.13881711605778,0.));
#368=CARTESIAN_POINT('',(-2.89938806059995,9.19568410305647,0.));
#369=CARTESIAN_POINT('',(-2.77359666451251,9.21434241418858,0.));
#370=CARTESIAN_POINT('',(-2.64824223232014,9.19294441840677,0.));
#371=CARTESIAN_POINT('',(-2.53576560021043,9.13360964655239,0.));
#372=CARTESIAN_POINT('',(-2.47680795292067,9.07269191714366,0.));
#373=CARTESIAN_POINT('',(-1.52081386343016,7.70739086378054,0.));
#374=CARTESIAN_POINT('',(0.,0.,0.));
#375=CARTESIAN_POINT('',(-3.175,10.0698134975032,0.));
#376=CARTESIAN_POINT('',(-2.45279663841727,9.03840020619636,0.));
#377=CARTESIAN_POINT('',(-2.45279663841727,9.03840020619636,0.));
#378=CARTESIAN_POINT('',(3.13910001150537,1.05234415170145,0.));
#379=CARTESIAN_POINT('',(3.09351329450865,1.03797071504342,-0.371274015735313));
#380=CARTESIAN_POINT('',(2.84687275655646,0.960205252138628,-2.38));
#381=CARTESIAN_POINT('',(-2.69217519170563,8.87078553869812,-2.38));
#382=CARTESIAN_POINT('',(-2.69217519170563,8.87078553869812,-2.38));
#383=CARTESIAN_POINT('',(-2.45279663841727,9.03840020619636,0.));
#384=CARTESIAN_POINT('',(-2.45279663841727,9.03840020619636,0.));
#385=CARTESIAN_POINT('',(2.88277274505109,1.00107365469077,-2.38));
#386=CARTESIAN_POINT('',(2.88277274505109,0.846345035224153,-2.38));
#387=CARTESIAN_POINT('',(2.8827727450511,-8.81190982067425,-2.38));
#388=CARTESIAN_POINT('',(3.17529266682096,0.93857621228117,0.00238357997790207));
#389=CARTESIAN_POINT('',(3.175,0.938483934786976,0.));
#390=CARTESIAN_POINT('',(3.175,1.00107365469077,0.));
#391=CARTESIAN_POINT('',(3.17500000000001,-8.81190982067425,0.));
#392=CARTESIAN_POINT('',(3.17500000000001,-8.81190982067425,-3.27865305976214E-17));
#393=CARTESIAN_POINT('',(3.175,1.00107365469077,0.));
#394=CARTESIAN_POINT('',(2.77500000000001,-8.81190982067425,0.));
#395=CARTESIAN_POINT('',(2.44717894076796,-9.04111137634955,0.));
#396=CARTESIAN_POINT('',(2.44717894076796,-9.04111137634955,0.));
#397=CARTESIAN_POINT('',(2.68667456140253,-8.87366402273702,-2.38));
#398=CARTESIAN_POINT('',(2.77500000000001,-8.81190982067425,-2.38));
#399=CARTESIAN_POINT('',(2.77500000000001,-8.81190982067425,0.));
#400=CARTESIAN_POINT('',(2.44717894076796,-9.04111137634955,0.));
#401=CARTESIAN_POINT('',(-3.13917953505561,-1.05108727987772,0.));
#402=CARTESIAN_POINT('',(-3.0936478300778,-1.03674867634174,-0.370825978795629));
#403=CARTESIAN_POINT('',(-2.8469522801067,-0.959060619484458,-2.38));
#404=CARTESIAN_POINT('',(2.68667456140253,-8.87366402273702,-2.38));
#405=CARTESIAN_POINT('',(2.44717894076796,-9.04111137634955,0.));
#406=CARTESIAN_POINT('',(-2.88277274505108,-0.99985419498152,-2.38));
#407=CARTESIAN_POINT('',(-2.88277274505108,-0.845314058466599,-2.38));
#408=CARTESIAN_POINT('',(-2.88277274505109,8.810690360965,-2.38));
#409=CARTESIAN_POINT('',(-3.17529195527803,-0.937432659870723,0.00237778492579794));
#410=CARTESIAN_POINT('',(-3.175,-0.93734071885986,0.));
#411=CARTESIAN_POINT('',(-3.175,-0.99985419498152,0.));
#412=CARTESIAN_POINT('',(-3.175,8.810690360965,0.));
#413=CARTESIAN_POINT('',(-3.175,8.810690360965,-3.27865305976214E-17));
#414=CARTESIAN_POINT('',(-3.175,-0.99985419498152,0.));
#415=CARTESIAN_POINT('',(-2.778,8.810690360965,0.));
#416=CARTESIAN_POINT('',(-2.778,8.810690360965,-2.38));
#417=CARTESIAN_POINT('',(-2.778,8.810690360965,0.));
#418=CARTESIAN_POINT('',(2.68127077995932,0.845401429577784,-2.38));
#419=CARTESIAN_POINT('',(-2.68127077995931,-0.844371602275179,-2.38));
#420=CARTESIAN_POINT('',(2.77500000000001,-8.81190982067425,-2.38));
#421=CARTESIAN_POINT('',(2.97349803490823,0.937540329140606,0.));
#422=CARTESIAN_POINT('',(-2.97349803490823,-0.93639826266844,0.));
#423=CARTESIAN_POINT('',(2.77500000000001,-8.81190982067425,0.));
#424=CARTESIAN_POINT('',(2.9767834364927,0.93857621228117,0.0267574486589315));
#425=CARTESIAN_POINT('',(-2.97678272494977,-0.937432659870723,0.0267516536068274));
#426=MECHANICAL_DESIGN_GEOMETRIC_PRESENTATION_REPRESENTATION('',(#212,#213,
#214,#215,#216,#217),#427);
#427=(
GEOMETRIC_REPRESENTATION_CONTEXT(3)
GLOBAL_UNCERTAINTY_ASSIGNED_CONTEXT((#428))
GLOBAL_UNIT_ASSIGNED_CONTEXT((#434,#430,#429))
REPRESENTATION_CONTEXT('aaa339346_b','TOP_LEVEL_ASSEMBLY_PART')
);
#428=UNCERTAINTY_MEASURE_WITH_UNIT(LENGTH_MEASURE(2.E-5),#434,
'DISTANCE_ACCURACY_VALUE','Maximum Tolerance applied to model');
#429=(
NAMED_UNIT(*)
SI_UNIT($,.STERADIAN.)
SOLID_ANGLE_UNIT()
);
#430=(
CONVERSION_BASED_UNIT('DEGREE',#432)
NAMED_UNIT(#431)
PLANE_ANGLE_UNIT()
);
#431=DIMENSIONAL_EXPONENTS(0.,0.,0.,0.,0.,0.,0.);
#432=PLANE_ANGLE_MEASURE_WITH_UNIT(PLANE_ANGLE_MEASURE(0.0174532925),#433);
#433=(
NAMED_UNIT(*)
PLANE_ANGLE_UNIT()
SI_UNIT($,.RADIAN.)
);
#434=(
LENGTH_UNIT()
NAMED_UNIT(*)
SI_UNIT(.MILLI.,.METRE.)
);
ENDSEC;
END-ISO-10303-21;
