ISO-10303-21;
HEADER;
/* Generated by software containing ST-Developer
 * from STEP Tools, Inc. (www.steptools.com) 
 */
/* OPTION: using custom schema-name function */

FILE_DESCRIPTION(
/* description */ (''),
/* implementation_level */ '2;1');

FILE_NAME(
/* name */ 'aaa339365_a.stp',
/* time_stamp */ '2019-09-25T13:24:02+02:00',
/* author */ (''),
/* organization */ ('SMS'),
/* preprocessor_version */ 'ST-DEVELOPER v16.7',
/* originating_system */ 'SIEMENS PLM Software NX 12.0',
/* authorisation */ '');

FILE_SCHEMA (('AUTOMOTIVE_DESIGN { 1 0 10303 214 3 1 1 1 }'));
ENDSEC;

DATA;
#10=CONSTRUCTIVE_GEOMETRY_REPRESENTATION_RELATIONSHIP(
'supplemental geometry','',#26,#11);
#11=CONSTRUCTIVE_GEOMETRY_REPRESENTATION('supplemental geometry',(#251,
#252),#505);
#12=GEOMETRICALLY_BOUNDED_WIREFRAME_SHAPE_REPRESENTATION(
'AAA339365_A-None',(#27),#505);
#13=SHAPE_REPRESENTATION_RELATIONSHIP('None',
'relationship between AAA339365_A-None and AAA339365_A-None',#26,#15);
#14=SHAPE_REPRESENTATION_RELATIONSHIP('None',
'relationship between AAA339365_A-None and AAA339365_A-None',#26,#12);
#15=ADVANCED_BREP_SHAPE_REPRESENTATION('AAA339365_A-None',(#33),#505);
#16=SHAPE_DEFINITION_REPRESENTATION(#17,#26);
#17=PRODUCT_DEFINITION_SHAPE('','',#18);
#18=PRODUCT_DEFINITION(' ','',#20,#19);
#19=PRODUCT_DEFINITION_CONTEXT('part definition',#25,'design');
#20=PRODUCT_DEFINITION_FORMATION_WITH_SPECIFIED_SOURCE(' ',' ',#22,
 .NOT_KNOWN.);
#21=PRODUCT_RELATED_PRODUCT_CATEGORY('part','',(#22));
#22=PRODUCT('AAA339365_A','AAA339365_A','MASTER_INSERT',(#23));
#23=PRODUCT_CONTEXT(' ',#25,'mechanical');
#24=APPLICATION_PROTOCOL_DEFINITION('international standard',
'automotive_design',2010,#25);
#25=APPLICATION_CONTEXT(
'core data for automotive mechanical design processes');
#26=SHAPE_REPRESENTATION('AAA339365_A-None',(#250),#505);
#27=GEOMETRIC_CURVE_SET('None',(#329,#330,#227));
#28=SURFACE_STYLE_USAGE(.BOTH.,#29);
#29=SURFACE_SIDE_STYLE('',(#30));
#30=SURFACE_STYLE_FILL_AREA(#31);
#31=FILL_AREA_STYLE('',(#32));
#32=FILL_AREA_STYLE_COLOUR('',#249);
#33=MANIFOLD_SOLID_BREP('',#34);
#34=CLOSED_SHELL('',(#47,#48,#49,#50,#51,#52,#53,#54,#55,#56,#57));
#35=CYLINDRICAL_SURFACE('',#267,0.02);
#36=CYLINDRICAL_SURFACE('',#268,0.02);
#37=CYLINDRICAL_SURFACE('',#269,0.02);
#38=ELLIPSE('',#262,0.0205942146593113,0.02);
#39=ELLIPSE('',#263,0.0205942146593113,0.02);
#40=ELLIPSE('',#264,0.0205942146593113,0.02);
#41=CONICAL_SURFACE('',#255,0.197999999999999,6.99999999999999);
#42=CONICAL_SURFACE('',#258,0.198000000000001,6.99999999999999);
#43=CONICAL_SURFACE('',#261,0.197999999999999,6.99999999999999);
#44=CIRCLE('',#254,0.197999999999999);
#45=CIRCLE('',#257,0.198000000000001);
#46=CIRCLE('',#260,0.197999999999999);
#47=ADVANCED_FACE('',(#63),#58,.F.);
#48=ADVANCED_FACE('',(#64),#41,.T.);
#49=ADVANCED_FACE('',(#65),#59,.F.);
#50=ADVANCED_FACE('',(#66),#42,.T.);
#51=ADVANCED_FACE('',(#67),#60,.F.);
#52=ADVANCED_FACE('',(#68),#43,.T.);
#53=ADVANCED_FACE('',(#69),#61,.T.);
#54=ADVANCED_FACE('',(#70),#62,.F.);
#55=ADVANCED_FACE('',(#71),#35,.T.);
#56=ADVANCED_FACE('',(#72),#36,.T.);
#57=ADVANCED_FACE('',(#73),#37,.T.);
#58=PLANE('',#253);
#59=PLANE('',#256);
#60=PLANE('',#259);
#61=PLANE('',#265);
#62=PLANE('',#266);
#63=FACE_OUTER_BOUND('',#74,.T.);
#64=FACE_OUTER_BOUND('',#75,.T.);
#65=FACE_OUTER_BOUND('',#76,.T.);
#66=FACE_OUTER_BOUND('',#77,.T.);
#67=FACE_OUTER_BOUND('',#78,.T.);
#68=FACE_OUTER_BOUND('',#79,.T.);
#69=FACE_OUTER_BOUND('',#80,.T.);
#70=FACE_OUTER_BOUND('',#81,.T.);
#71=FACE_OUTER_BOUND('',#82,.T.);
#72=FACE_OUTER_BOUND('',#83,.T.);
#73=FACE_OUTER_BOUND('',#84,.T.);
#74=EDGE_LOOP('',(#85,#86,#87,#88,#89,#90));
#75=EDGE_LOOP('',(#91,#92,#93,#94));
#76=EDGE_LOOP('',(#95,#96,#97,#98,#99,#100));
#77=EDGE_LOOP('',(#101,#102,#103,#104));
#78=EDGE_LOOP('',(#105,#106,#107,#108,#109,#110));
#79=EDGE_LOOP('',(#111,#112,#113,#114));
#80=EDGE_LOOP('',(#115,#116,#117,#118,#119,#120));
#81=EDGE_LOOP('',(#121,#122,#123,#124,#125,#126));
#82=EDGE_LOOP('',(#127,#128,#129,#130));
#83=EDGE_LOOP('',(#131,#132,#133,#134));
#84=EDGE_LOOP('',(#135,#136,#137,#138));
#85=ORIENTED_EDGE('',*,*,#157,.F.);
#86=ORIENTED_EDGE('',*,*,#158,.T.);
#87=ORIENTED_EDGE('',*,*,#159,.T.);
#88=ORIENTED_EDGE('',*,*,#160,.T.);
#89=ORIENTED_EDGE('',*,*,#161,.F.);
#90=ORIENTED_EDGE('',*,*,#162,.T.);
#91=ORIENTED_EDGE('',*,*,#163,.F.);
#92=ORIENTED_EDGE('',*,*,#164,.T.);
#93=ORIENTED_EDGE('',*,*,#161,.T.);
#94=ORIENTED_EDGE('',*,*,#165,.T.);
#95=ORIENTED_EDGE('',*,*,#166,.F.);
#96=ORIENTED_EDGE('',*,*,#167,.T.);
#97=ORIENTED_EDGE('',*,*,#168,.F.);
#98=ORIENTED_EDGE('',*,*,#169,.T.);
#99=ORIENTED_EDGE('',*,*,#163,.T.);
#100=ORIENTED_EDGE('',*,*,#170,.T.);
#101=ORIENTED_EDGE('',*,*,#171,.F.);
#102=ORIENTED_EDGE('',*,*,#172,.T.);
#103=ORIENTED_EDGE('',*,*,#166,.T.);
#104=ORIENTED_EDGE('',*,*,#173,.T.);
#105=ORIENTED_EDGE('',*,*,#174,.F.);
#106=ORIENTED_EDGE('',*,*,#175,.T.);
#107=ORIENTED_EDGE('',*,*,#176,.F.);
#108=ORIENTED_EDGE('',*,*,#177,.T.);
#109=ORIENTED_EDGE('',*,*,#171,.T.);
#110=ORIENTED_EDGE('',*,*,#178,.T.);
#111=ORIENTED_EDGE('',*,*,#159,.F.);
#112=ORIENTED_EDGE('',*,*,#179,.T.);
#113=ORIENTED_EDGE('',*,*,#174,.T.);
#114=ORIENTED_EDGE('',*,*,#180,.T.);
#115=ORIENTED_EDGE('',*,*,#176,.T.);
#116=ORIENTED_EDGE('',*,*,#181,.T.);
#117=ORIENTED_EDGE('',*,*,#157,.T.);
#118=ORIENTED_EDGE('',*,*,#182,.T.);
#119=ORIENTED_EDGE('',*,*,#168,.T.);
#120=ORIENTED_EDGE('',*,*,#183,.T.);
#121=ORIENTED_EDGE('',*,*,#160,.F.);
#122=ORIENTED_EDGE('',*,*,#180,.F.);
#123=ORIENTED_EDGE('',*,*,#178,.F.);
#124=ORIENTED_EDGE('',*,*,#173,.F.);
#125=ORIENTED_EDGE('',*,*,#170,.F.);
#126=ORIENTED_EDGE('',*,*,#165,.F.);
#127=ORIENTED_EDGE('',*,*,#181,.F.);
#128=ORIENTED_EDGE('',*,*,#175,.F.);
#129=ORIENTED_EDGE('',*,*,#179,.F.);
#130=ORIENTED_EDGE('',*,*,#158,.F.);
#131=ORIENTED_EDGE('',*,*,#183,.F.);
#132=ORIENTED_EDGE('',*,*,#167,.F.);
#133=ORIENTED_EDGE('',*,*,#172,.F.);
#134=ORIENTED_EDGE('',*,*,#177,.F.);
#135=ORIENTED_EDGE('',*,*,#182,.F.);
#136=ORIENTED_EDGE('',*,*,#162,.F.);
#137=ORIENTED_EDGE('',*,*,#164,.F.);
#138=ORIENTED_EDGE('',*,*,#169,.F.);
#139=VERTEX_POINT('',#377);
#140=VERTEX_POINT('',#378);
#141=VERTEX_POINT('',#380);
#142=VERTEX_POINT('',#382);
#143=VERTEX_POINT('',#384);
#144=VERTEX_POINT('',#386);
#145=VERTEX_POINT('',#390);
#146=VERTEX_POINT('',#391);
#147=VERTEX_POINT('',#420);
#148=VERTEX_POINT('',#421);
#149=VERTEX_POINT('',#423);
#150=VERTEX_POINT('',#425);
#151=VERTEX_POINT('',#430);
#152=VERTEX_POINT('',#431);
#153=VERTEX_POINT('',#460);
#154=VERTEX_POINT('',#461);
#155=VERTEX_POINT('',#463);
#156=VERTEX_POINT('',#465);
#157=EDGE_CURVE('',#139,#140,#184,.T.);
#158=EDGE_CURVE('',#139,#141,#185,.T.);
#159=EDGE_CURVE('',#141,#142,#186,.T.);
#160=EDGE_CURVE('',#142,#143,#187,.T.);
#161=EDGE_CURVE('',#144,#143,#188,.T.);
#162=EDGE_CURVE('',#144,#140,#189,.T.);
#163=EDGE_CURVE('',#145,#146,#190,.T.);
#164=EDGE_CURVE('',#145,#144,#228,.T.);
#165=EDGE_CURVE('',#143,#146,#44,.T.);
#166=EDGE_CURVE('',#147,#148,#191,.T.);
#167=EDGE_CURVE('',#147,#149,#192,.T.);
#168=EDGE_CURVE('',#150,#149,#193,.T.);
#169=EDGE_CURVE('',#150,#145,#194,.T.);
#170=EDGE_CURVE('',#146,#148,#195,.T.);
#171=EDGE_CURVE('',#151,#152,#196,.T.);
#172=EDGE_CURVE('',#151,#147,#229,.T.);
#173=EDGE_CURVE('',#148,#152,#45,.T.);
#174=EDGE_CURVE('',#153,#154,#197,.T.);
#175=EDGE_CURVE('',#153,#155,#198,.T.);
#176=EDGE_CURVE('',#156,#155,#199,.T.);
#177=EDGE_CURVE('',#156,#151,#200,.T.);
#178=EDGE_CURVE('',#152,#154,#201,.T.);
#179=EDGE_CURVE('',#141,#153,#230,.T.);
#180=EDGE_CURVE('',#154,#142,#46,.T.);
#181=EDGE_CURVE('',#155,#139,#38,.T.);
#182=EDGE_CURVE('',#140,#150,#39,.T.);
#183=EDGE_CURVE('',#149,#156,#40,.T.);
#184=LINE('',#376,#202);
#185=LINE('',#379,#203);
#186=LINE('',#381,#204);
#187=LINE('',#383,#205);
#188=LINE('',#385,#206);
#189=LINE('',#387,#207);
#190=LINE('',#389,#208);
#191=LINE('',#419,#209);
#192=LINE('',#422,#210);
#193=LINE('',#424,#211);
#194=LINE('',#426,#212);
#195=LINE('',#427,#213);
#196=LINE('',#429,#214);
#197=LINE('',#459,#215);
#198=LINE('',#462,#216);
#199=LINE('',#464,#217);
#200=LINE('',#466,#218);
#201=LINE('',#467,#219);
#202=VECTOR('',#276,1.);
#203=VECTOR('',#277,1.);
#204=VECTOR('',#278,1.);
#205=VECTOR('',#279,1.);
#206=VECTOR('',#280,1.);
#207=VECTOR('',#281,1.);
#208=VECTOR('',#284,1.);
#209=VECTOR('',#289,1.);
#210=VECTOR('',#290,1.);
#211=VECTOR('',#291,1.);
#212=VECTOR('',#292,1.);
#213=VECTOR('',#293,1.);
#214=VECTOR('',#296,1.);
#215=VECTOR('',#301,1.);
#216=VECTOR('',#302,1.);
#217=VECTOR('',#303,1.);
#218=VECTOR('',#304,1.);
#219=VECTOR('',#305,1.);
#220=CURVE_STYLE('',#224,POSITIVE_LENGTH_MEASURE(0.18),#223);
#221=CURVE_STYLE('',#225,POSITIVE_LENGTH_MEASURE(0.18),#248);
#222=CURVE_STYLE('',#226,POSITIVE_LENGTH_MEASURE(0.18),#248);
#223=DRAUGHTING_PRE_DEFINED_COLOUR('blue');
#224=DRAUGHTING_PRE_DEFINED_CURVE_FONT('continuous');
#225=DRAUGHTING_PRE_DEFINED_CURVE_FONT('continuous');
#226=DRAUGHTING_PRE_DEFINED_CURVE_FONT('continuous');
#227=B_SPLINE_CURVE_WITH_KNOTS('CUTTING EDGE LINE',3,(#331,#332,#333,#334,
#335,#336,#337,#338,#339,#340,#341,#342,#343,#344,#345,#346,#347,#348,#349,
#350,#351,#352,#353,#354,#355,#356,#357,#358,#359,#360,#361,#362,#363,#364,
#365,#366,#367,#368,#369,#370,#371,#372,#373),.UNSPECIFIED.,.T.,.F.,(1,
1,2,1,1,1,1,1,1,1,1,1,1,1,1,1,1,1,1,1,1,1,1,1,1,1,1,1,1,1,1,1,1,1,1,1,1,
1,1,1,1,1,2,1,1),(-0.0073903447,-0.00369517235000005,0.,0.15927632195,0.317557166887812,
0.318054905393906,0.3185526439,0.319476436989583,0.320400230079167,0.322247816258333,
0.325942988616667,0.329638160975,0.331485747154167,0.33240954024375,0.333333333333333,
0.333831071839531,0.334328810345729,0.492609655316667,0.572247816308333,
0.650890500287604,0.651388238793802,0.6518859773,0.652809770385417,0.653733563470833,
0.655581149641667,0.659276321983333,0.662971494325,0.664819080495833,0.66574287358125,
0.666666666666667,0.667164405172813,0.667662143678958,0.825942988633333,
0.905581149616667,0.984223833587708,0.984721572093854,0.9852193106,0.9861431036875,
0.987066896775,0.98891448295,0.9926096553,0.99630482765,1.,1.15927632195,
1.31755716688781),.UNSPECIFIED.);
#228=B_SPLINE_CURVE_WITH_KNOTS('',3,(#392,#393,#394,#395,#396,#397,#398,
#399,#400,#401,#402,#403,#404,#405,#406,#407,#408,#409,#410,#411,#412,#413,
#414,#415,#416),.UNSPECIFIED.,.F.,.F.,(4,3,3,3,3,3,3,3,4),(0.,0.0477729013447265,
0.210924120921172,0.374131772783789,0.500009229273653,0.661862922802488,
0.823683652008309,0.952227098655283,1.),.UNSPECIFIED.);
#229=B_SPLINE_CURVE_WITH_KNOTS('',3,(#432,#433,#434,#435,#436,#437,#438,
#439,#440,#441,#442,#443,#444,#445,#446,#447,#448,#449,#450,#451,#452,#453,
#454,#455,#456),.UNSPECIFIED.,.F.,.F.,(4,3,3,3,3,3,3,3,4),(0.,0.0477729013447245,
0.210924120921511,0.374131772784494,0.50000922927642,0.661862922805246,
0.823683652011052,0.952227098655288,1.),.UNSPECIFIED.);
#230=B_SPLINE_CURVE_WITH_KNOTS('',3,(#469,#470,#471,#472,#473,#474,#475,
#476,#477,#478,#479,#480,#481,#482,#483,#484,#485,#486,#487,#488,#489,#490,
#491,#492,#493),.UNSPECIFIED.,.F.,.F.,(4,3,3,3,3,3,3,3,4),(0.,0.047772901344694,
0.21092412092201,0.374131772785556,0.500009229261214,0.661862922789957,
0.823683651995688,0.952227098655248,1.),.UNSPECIFIED.);
#231=PRESENTATION_LAYER_ASSIGNMENT('1','Layer 1',(#329,#330,#227,#251,#252,
#33));
#232=STYLED_ITEM('',(#238),#329);
#233=STYLED_ITEM('',(#239),#330);
#234=STYLED_ITEM('',(#240),#227);
#235=STYLED_ITEM('',(#241),#251);
#236=STYLED_ITEM('',(#242),#252);
#237=STYLED_ITEM('',(#243),#33);
#238=PRESENTATION_STYLE_ASSIGNMENT((#244));
#239=PRESENTATION_STYLE_ASSIGNMENT((#245));
#240=PRESENTATION_STYLE_ASSIGNMENT((#220));
#241=PRESENTATION_STYLE_ASSIGNMENT((#221));
#242=PRESENTATION_STYLE_ASSIGNMENT((#222));
#243=PRESENTATION_STYLE_ASSIGNMENT((#28));
#244=POINT_STYLE('',#246,POSITIVE_LENGTH_MEASURE(3.),#248);
#245=POINT_STYLE('',#247,POSITIVE_LENGTH_MEASURE(3.),#248);
#246=PRE_DEFINED_POINT_MARKER_SYMBOL('plus');
#247=PRE_DEFINED_POINT_MARKER_SYMBOL('plus');
#248=COLOUR_RGB('Medium Weak Red',0.6,0.4,0.4);
#249=COLOUR_RGB('Pale Gray',0.8,0.8,0.8);
#250=AXIS2_PLACEMENT_3D('',#328,#270,#271);
#251=AXIS2_PLACEMENT_3D('MCS',#374,#272,#273);
#252=AXIS2_PLACEMENT_3D('PCS',#375,#274,#275);
#253=AXIS2_PLACEMENT_3D('',#388,#282,#283);
#254=AXIS2_PLACEMENT_3D('',#417,#285,#286);
#255=AXIS2_PLACEMENT_3D('',#418,#287,#288);
#256=AXIS2_PLACEMENT_3D('',#428,#294,#295);
#257=AXIS2_PLACEMENT_3D('',#457,#297,#298);
#258=AXIS2_PLACEMENT_3D('',#458,#299,#300);
#259=AXIS2_PLACEMENT_3D('',#468,#306,#307);
#260=AXIS2_PLACEMENT_3D('',#494,#308,#309);
#261=AXIS2_PLACEMENT_3D('',#495,#310,#311);
#262=AXIS2_PLACEMENT_3D('',#496,#312,#313);
#263=AXIS2_PLACEMENT_3D('',#497,#314,#315);
#264=AXIS2_PLACEMENT_3D('',#498,#316,#317);
#265=AXIS2_PLACEMENT_3D('',#499,#318,#319);
#266=AXIS2_PLACEMENT_3D('',#500,#320,#321);
#267=AXIS2_PLACEMENT_3D('',#501,#322,#323);
#268=AXIS2_PLACEMENT_3D('',#502,#324,#325);
#269=AXIS2_PLACEMENT_3D('',#503,#326,#327);
#270=DIRECTION('',(0.,0.,1.));
#271=DIRECTION('',(1.,0.,0.));
#272=DIRECTION('',(0.,0.,1.));
#273=DIRECTION('',(1.45716771982052E-15,-1.,0.));
#274=DIRECTION('',(0.,0.,1.));
#275=DIRECTION('',(1.45716771982052E-15,-1.,0.));
#276=DIRECTION('',(0.,1.,0.));
#277=DIRECTION('',(-0.119241799635598,-0.206532855354804,0.971146524927447));
#278=DIRECTION('',(-0.121869343405147,0.,0.992546151641322));
#279=DIRECTION('',(0.,1.,0.));
#280=DIRECTION('',(-0.121869343405147,5.33862654057548E-16,0.992546151641322));
#281=DIRECTION('',(0.119241799635598,-0.206532855354804,-0.971146524927447));
#282=DIRECTION('',(0.992546151641322,0.,0.121869343405147));
#283=DIRECTION('',(0.121869343405147,0.,-0.992546151641322));
#284=DIRECTION('',(0.0609346717025737,0.105541947331387,0.992546151641322));
#285=DIRECTION('',(0.,0.,-1.));
#286=DIRECTION('',(0.,1.,0.));
#287=DIRECTION('',(0.,0.,1.));
#288=DIRECTION('',(-5.99481318227072E-17,1.,0.));
#289=DIRECTION('',(0.0609346717025736,0.105541947331387,0.992546151641322));
#290=DIRECTION('',(-0.238483599271196,1.4183590764504E-17,-0.971146524927447));
#291=DIRECTION('',(0.866025403784438,-0.5,0.));
#292=DIRECTION('',(-0.119241799635598,0.206532855354804,0.971146524927446));
#293=DIRECTION('',(0.866025403784438,-0.5,0.));
#294=DIRECTION('',(-0.496273075820661,-0.859570181749866,0.121869343405147));
#295=DIRECTION('',(0.866025403784438,-0.5,0.));
#296=DIRECTION('',(0.0609346717025737,-0.105541947331387,0.992546151641322));
#297=DIRECTION('',(0.,0.,-1.));
#298=DIRECTION('',(0.,1.,0.));
#299=DIRECTION('',(0.,0.,1.));
#300=DIRECTION('',(-6.34744925181605E-17,1.,0.));
#301=DIRECTION('',(0.0609346717025745,-0.105541947331387,0.992546151641322));
#302=DIRECTION('',(0.119241799635598,0.206532855354804,-0.971146524927447));
#303=DIRECTION('',(-0.866025403784438,-0.5,0.));
#304=DIRECTION('',(0.238483599271196,-1.9488552195653E-18,0.971146524927447));
#305=DIRECTION('',(-0.866025403784438,-0.5,0.));
#306=DIRECTION('',(-0.496273075820661,0.859570181749866,0.121869343405147));
#307=DIRECTION('',(-0.866025403784438,-0.5,0.));
#308=DIRECTION('',(0.,0.,-1.));
#309=DIRECTION('',(0.,1.,0.));
#310=DIRECTION('',(0.,0.,1.));
#311=DIRECTION('',(-5.99481318227072E-17,1.,0.));
#312=DIRECTION('',(0.,0.,-1.));
#313=DIRECTION('',(-0.5,-0.866025403784439,0.));
#314=DIRECTION('',(0.,0.,-1.));
#315=DIRECTION('',(-0.5,0.866025403784439,0.));
#316=DIRECTION('',(0.,0.,-1.));
#317=DIRECTION('',(1.,-9.30194501691216E-18,0.));
#318=DIRECTION('',(0.,0.,-1.));
#319=DIRECTION('',(-1.,0.,0.));
#320=DIRECTION('',(0.,0.,-1.));
#321=DIRECTION('',(-1.,0.,0.));
#322=DIRECTION('',(-0.119241799635598,-0.206532855354804,0.971146524927446));
#323=DIRECTION('',(0.,-0.978125209399275,-0.208017005885735));
#324=DIRECTION('',(0.238483599271196,-2.21836132785598E-18,0.971146524927446));
#325=DIRECTION('',(0.971146524927436,0.,-0.238483599271196));
#326=DIRECTION('',(-0.119241799635598,0.206532855354804,0.971146524927446));
#327=DIRECTION('',(0.,-0.978125209399275,0.208017005885735));
#328=CARTESIAN_POINT('',(0.,0.,0.));
#329=CARTESIAN_POINT('',(0.,0.,0.));
#330=CARTESIAN_POINT('',(-2.778,4.81163714342634,0.));
#331=CARTESIAN_POINT('',(-2.51092768950986,4.65744287307177,0.));
#332=CARTESIAN_POINT('',(-1.191,3.89538226622241,0.));
#333=CARTESIAN_POINT('',(1.3809375,2.41047345825851,0.));
#334=CARTESIAN_POINT('',(3.95690625,0.92323720702195,0.));
#335=CARTESIAN_POINT('',(5.24690625,0.178455359767332,0.));
#336=CARTESIAN_POINT('',(5.26252897378597,0.169615589435589,0.));
#337=CARTESIAN_POINT('',(5.28086446379529,0.157513169882643,0.));
#338=CARTESIAN_POINT('',(5.30688448847075,0.134651940569534,0.));
#339=CARTESIAN_POINT('',(5.34411166135132,0.086353421033172,0.));
#340=CARTESIAN_POINT('',(5.36725889242816,2.31039631870544E-11,0.));
#341=CARTESIAN_POINT('',(5.3441116613642,-0.0863534210135117,0.));
#342=CARTESIAN_POINT('',(5.30688448847574,-0.134651940563936,0.));
#343=CARTESIAN_POINT('',(5.28086446379626,-0.157513169881745,0.));
#344=CARTESIAN_POINT('',(5.26252897378465,-0.169615589436432,0.));
#345=CARTESIAN_POINT('',(5.24690625,-0.178455359767331,0.));
#346=CARTESIAN_POINT('',(3.95690625,-0.923237207021948,0.));
#347=CARTESIAN_POINT('',(2.0259375,-2.0380825346312,0.));
#348=CARTESIAN_POINT('',(-0.5379375,-3.51833645604975,0.));
#349=CARTESIAN_POINT('',(-1.82390625,-4.2607908600317,0.));
#350=CARTESIAN_POINT('',(-2.46890625,-4.63318178365901,0.));
#351=CARTESIAN_POINT('',(-2.48437307753636,-4.64229157415305,0.));
#352=CARTESIAN_POINT('',(-2.50402182534866,-4.65211936453053,0.));
#353=CARTESIAN_POINT('',(-2.53683024303329,-4.66322275225002,0.));
#354=CARTESIAN_POINT('',(-2.59727157435724,-4.67131316990749,0.));
#355=CARTESIAN_POINT('',(-2.68362944619407,-4.64818254954227,0.));
#356=CARTESIAN_POINT('',(-2.74684008698349,-4.5849597488953,0.));
#357=CARTESIAN_POINT('',(-2.77005424543511,-4.52857081168761,0.));
#358=CARTESIAN_POINT('',(-2.77684263844634,-4.49460619464918,0.));
#359=CARTESIAN_POINT('',(-2.77815589622283,-4.47267598470166,0.));
#360=CARTESIAN_POINT('',(-2.778,-4.45472642389168,0.));
#361=CARTESIAN_POINT('',(-2.778,-2.96516272938244,0.));
#362=CARTESIAN_POINT('',(-2.778,-0.735472074163934,0.));
#363=CARTESIAN_POINT('',(-2.778,2.22503576867317,0.));
#364=CARTESIAN_POINT('',(-2.778,3.70994457663706,0.));
#365=CARTESIAN_POINT('',(-2.778,4.45472642389168,0.));
#366=CARTESIAN_POINT('',(-2.77815589622244,4.47267598471683,0.));
#367=CARTESIAN_POINT('',(-2.77684263844663,4.4946061946479,0.));
#368=CARTESIAN_POINT('',(-2.77005424543746,4.52857081168049,0.));
#369=CARTESIAN_POINT('',(-2.74684008699408,4.58495974887432,0.));
#370=CARTESIAN_POINT('',(-2.68362944623409,4.64818254951917,0.));
#371=CARTESIAN_POINT('',(-2.58000000001003,4.67593929398674,0.));
#372=CARTESIAN_POINT('',(-2.51092768950986,4.65744287307177,0.));
#373=CARTESIAN_POINT('',(-1.191,3.89538226622241,0.));
#374=CARTESIAN_POINT('',(0.,0.,0.));
#375=CARTESIAN_POINT('',(-2.778,4.81163714342634,0.));
#376=CARTESIAN_POINT('',(-2.48577274505109,-4.4686910835277,-2.38));
#377=CARTESIAN_POINT('',(-2.48577274505109,-4.27110188322845,-2.38));
#378=CARTESIAN_POINT('',(-2.48577274505109,4.27110188322845,-2.38));
#379=CARTESIAN_POINT('',(-2.77040090497897,-4.76409231748838,-0.0618896623903509));
#380=CARTESIAN_POINT('',(-2.59985092303283,-4.4686910835277,-1.45090779864457));
#381=CARTESIAN_POINT('',(-2.778,-4.4686910835277,0.));
#382=CARTESIAN_POINT('',(-2.778,-4.4686910835277,0.));
#383=CARTESIAN_POINT('',(-2.778,-4.4686910835277,0.));
#384=CARTESIAN_POINT('',(-2.778,4.46869108352771,0.));
#385=CARTESIAN_POINT('',(-2.778,4.46869108352771,4.59011428366699E-17));
#386=CARTESIAN_POINT('',(-2.59985092303282,4.4686910835277,-1.45090779864458));
#387=CARTESIAN_POINT('',(-2.55029687201937,4.38286094945154,-1.8544931570077));
#388=CARTESIAN_POINT('',(-2.778,-4.4686910835277,0.));
#389=CARTESIAN_POINT('',(-2.481,4.64016411347702,-1.67419776714094E-16));
#390=CARTESIAN_POINT('',(-2.57007453848359,4.4858824871627,-1.45090779864457));
#391=CARTESIAN_POINT('',(-2.481,4.64016411347702,0.));
#392=CARTESIAN_POINT('',(-2.57007453848359,4.4858824871627,-1.45090779864457));
#393=CARTESIAN_POINT('',(-2.57064438411738,4.48620161396791,-1.45097744010843));
#394=CARTESIAN_POINT('',(-2.57123089579326,4.48649385760457,-1.45104129986804));
#395=CARTESIAN_POINT('',(-2.57182972568919,4.48675613771302,-1.45110476480402));
#396=CARTESIAN_POINT('',(-2.57387481453848,4.48765186140491,-1.4513215065428));
#397=CARTESIAN_POINT('',(-2.57610490387207,4.48820891553218,-1.45151404594809));
#398=CARTESIAN_POINT('',(-2.57833642493221,4.48837872063272,-1.45166625074775));
#399=CARTESIAN_POINT('',(-2.58056840998234,4.48854856104006,-1.45181848719465));
#400=CARTESIAN_POINT('',(-2.58286363456091,4.48833537648344,-1.45193455451999));
#401=CARTESIAN_POINT('',(-2.5850297466101,4.48775499435732,-1.4520045126628));
#402=CARTESIAN_POINT('',(-2.58671008987466,4.48730476778807,-1.45205878210566));
#403=CARTESIAN_POINT('',(-2.58834580620484,4.4866273648305,-1.45208664941161));
#404=CARTESIAN_POINT('',(-2.58985308917998,4.48575713459907,-1.45208664941161));
#405=CARTESIAN_POINT('',(-2.59178031908197,4.48464444789637,-1.45208664941161));
#406=CARTESIAN_POINT('',(-2.59354301615986,4.48318547898983,-1.45204058890458));
#407=CARTESIAN_POINT('',(-2.59499557973348,4.48150186182628,-1.45195238967155));
#408=CARTESIAN_POINT('',(-2.59644797855345,4.4798184356231,-1.45186420044231));
#409=CARTESIAN_POINT('',(-2.59763032493944,4.47786435386146,-1.45173148545937));
#410=CARTESIAN_POINT('',(-2.59844734248694,4.47580133281319,-1.45156538327567));
#411=CARTESIAN_POINT('',(-2.59909976259173,4.47415393073151,-1.451432744259));
#412=CARTESIAN_POINT('',(-2.5995344171973,4.47240563608254,-1.45127645099177));
#413=CARTESIAN_POINT('',(-2.59972993300064,4.47064794551132,-1.45110476480395));
#414=CARTESIAN_POINT('',(-2.59980220671178,4.46999820355468,-1.45104129986795));
#415=CARTESIAN_POINT('',(-2.59984237213627,4.46934414772541,-1.45097744010842));
#416=CARTESIAN_POINT('',(-2.59985092303282,4.4686910835277,-1.45090779864458));
#417=CARTESIAN_POINT('',(-2.58,4.4686910835277,0.));
#418=CARTESIAN_POINT('',(-2.58,4.4686910835277,0.));
#419=CARTESIAN_POINT('',(5.259,0.17147302994932,-4.59011428366699E-17));
#420=CARTESIAN_POINT('',(5.16992546151641,0.0171914036349981,-1.45090779864458));
#421=CARTESIAN_POINT('',(5.259,0.17147302994932,0.));
#422=CARTESIAN_POINT('',(5.07081735948949,0.0171914036349984,-1.8544931570077));
#423=CARTESIAN_POINT('',(4.94176910555293,0.0171914036349984,-2.38));
#424=CARTESIAN_POINT('',(-2.62711362747446,4.38708788701307,-2.38));
#425=CARTESIAN_POINT('',(-2.45599636050185,4.28829328686344,-2.38));
#426=CARTESIAN_POINT('',(-2.74062452042973,4.78128372112338,-0.0618896623903507));
#427=CARTESIAN_POINT('',(-2.481,4.64016411347702,0.));
#428=CARTESIAN_POINT('',(-2.481,4.64016411347702,0.));
#429=CARTESIAN_POINT('',(5.259,-0.171473029949319,-8.13725728176713E-17));
#430=CARTESIAN_POINT('',(5.16992546151641,-0.0171914036349976,-1.45090779864457));
#431=CARTESIAN_POINT('',(5.259,-0.171473029949318,0.));
#432=CARTESIAN_POINT('',(5.16992546151641,-0.0171914036349976,-1.45090779864457));
#433=CARTESIAN_POINT('',(5.17048675625364,-0.0168574662425012,-1.45097744010843));
#434=CARTESIAN_POINT('',(5.17103310250504,-0.0164956540499,-1.451041299868));
#435=CARTESIAN_POINT('',(5.17155965868982,-0.0161081922017112,-1.45110476480398));
#436=CARTESIAN_POINT('',(5.17335792258641,-0.014784955151163,-1.45132150654281));
#437=CARTESIAN_POINT('',(5.17495539027871,-0.0131321681991989,-1.45151404594808));
#438=CARTESIAN_POINT('',(5.17621820633954,-0.0112845168223047,-1.45166625074774));
#439=CARTESIAN_POINT('',(5.17748128497196,-0.00943648127169333,-1.45181848719464));
#440=CARTESIAN_POINT('',(5.17844427401951,-0.00734216620094406,-1.45193455451998));
#441=CARTESIAN_POINT('',(5.17902470437898,-0.00517606707583261,-1.4520045126628));
#442=CARTESIAN_POINT('',(5.17947496836484,-0.00349573383699544,-1.45205878210565));
#443=CARTESIAN_POINT('',(5.17970617836007,-0.00174046046285815,-1.4520866494116));
#444=CARTESIAN_POINT('',(5.17970617836007,4.61856239442786E-14,-1.4520866494116));
#445=CARTESIAN_POINT('',(5.17970617836006,0.00222537340545459,-1.4520866494116));
#446=CARTESIAN_POINT('',(5.1793240227626,0.0044813983073538,-1.45204058890457));
#447=CARTESIAN_POINT('',(5.17859224931552,0.00658116384448894,-1.45195238967154));
#448=CARTESIAN_POINT('',(5.17786055886814,0.00868069122059818,-1.45186420044229));
#449=CARTESIAN_POINT('',(5.17675944761448,0.010681674107751,-1.45173148545935));
#450=CARTESIAN_POINT('',(5.17538132775187,0.0124207425833485,-1.45156538327564));
#451=CARTESIAN_POINT('',(5.1742808457513,0.0138094560088452,-1.45143274425897));
#452=CARTESIAN_POINT('',(5.1729841054748,0.015060025263596,-1.45127645099176));
#453=CARTESIAN_POINT('',(5.17155965868984,0.0161081922017184,-1.45110476480387));
#454=CARTESIAN_POINT('',(5.17103310250506,0.016495654049909,-1.45104129986785));
#455=CARTESIAN_POINT('',(5.17048675625364,0.0168574662425039,-1.4509774401084));
#456=CARTESIAN_POINT('',(5.16992546151641,0.0171914036349981,-1.45090779864458));
#457=CARTESIAN_POINT('',(5.16,8.67361737988404E-16,0.));
#458=CARTESIAN_POINT('',(5.16,8.67361737988404E-16,0.));
#459=CARTESIAN_POINT('',(-2.481,-4.64016411347702,2.85242816199306E-16));
#460=CARTESIAN_POINT('',(-2.57007453848359,-4.4858824871627,-1.45090779864457));
#461=CARTESIAN_POINT('',(-2.481,-4.64016411347702,0.));
#462=CARTESIAN_POINT('',(-2.52052048747013,-4.40005235308653,-1.8544931570077));
#463=CARTESIAN_POINT('',(-2.45599636050185,-4.28829328686344,-2.38));
#464=CARTESIAN_POINT('',(5.11288637252554,0.0816031965146311,-2.38));
#465=CARTESIAN_POINT('',(4.94176910555293,-0.0171914036349974,-2.38));
#466=CARTESIAN_POINT('',(5.5110254254087,-0.0171914036349976,-0.0618896623903508));
#467=CARTESIAN_POINT('',(5.259,-0.171473029949319,0.));
#468=CARTESIAN_POINT('',(5.259,-0.171473029949319,0.));
#469=CARTESIAN_POINT('',(-2.59985092303283,-4.4686910835277,-1.45090779864457));
#470=CARTESIAN_POINT('',(-2.59984237213627,-4.4693441477254,-1.45097744010842));
#471=CARTESIAN_POINT('',(-2.59980220671178,-4.46999820355468,-1.45104129986795));
#472=CARTESIAN_POINT('',(-2.59972993300064,-4.47064794551132,-1.45110476480394));
#473=CARTESIAN_POINT('',(-2.59948310804793,-4.47286690625375,-1.45132150654282));
#474=CARTESIAN_POINT('',(-2.59885048640663,-4.475076747333,-1.45151404594808));
#475=CARTESIAN_POINT('',(-2.59788178140731,-4.47709420381044,-1.45166625074774));
#476=CARTESIAN_POINT('',(-2.59691287498959,-4.47911207976839,-1.45181848719465));
#477=CARTESIAN_POINT('',(-2.59558063945856,-4.48099321028252,-1.45193455451998));
#478=CARTESIAN_POINT('',(-2.59399495776883,-4.48257892728151,-1.4520045126628));
#479=CARTESIAN_POINT('',(-2.59276487849025,-4.48380903395093,-1.45205878210565));
#480=CARTESIAN_POINT('',(-2.59136037215548,-4.48488690436735,-1.4520866494116));
#481=CARTESIAN_POINT('',(-2.58985308918054,-4.48575713459874,-1.45208664941161));
#482=CARTESIAN_POINT('',(-2.58792585927858,-4.4868698213015,-1.45208664941162));
#483=CARTESIAN_POINT('',(-2.58578100660326,-4.48766687729691,-1.4520405889046));
#484=CARTESIAN_POINT('',(-2.58359666958258,-4.48808302567056,-1.45195238967158));
#485=CARTESIAN_POINT('',(-2.58141258031526,-4.48849912684355,-1.45186420044235));
#486=CARTESIAN_POINT('',(-2.57912912267562,-4.48854602796913,-1.45173148545942));
#487=CARTESIAN_POINT('',(-2.57693398526551,-4.48822207539652,-1.45156538327573));
#488=CARTESIAN_POINT('',(-2.57518108315996,-4.48796338674039,-1.45143274425906));
#489=CARTESIAN_POINT('',(-2.57344968827768,-4.48746566134618,-1.45127645099179));
#490=CARTESIAN_POINT('',(-2.57182972568919,-4.48675613771301,-1.45110476480405));
#491=CARTESIAN_POINT('',(-2.57123089579326,-4.48649385760456,-1.45104129986808));
#492=CARTESIAN_POINT('',(-2.57064438411738,-4.4862016139679,-1.45097744010845));
#493=CARTESIAN_POINT('',(-2.57007453848359,-4.4858824871627,-1.45090779864457));
#494=CARTESIAN_POINT('',(-2.58,-4.4686910835277,0.));
#495=CARTESIAN_POINT('',(-2.58,-4.4686910835277,0.));
#496=CARTESIAN_POINT('',(-2.46562254854191,-4.27058352636205,-2.38));
#497=CARTESIAN_POINT('',(-2.46562254854191,4.27058352636205,-2.38));
#498=CARTESIAN_POINT('',(4.93124509708382,-4.82590218979805E-16,-2.38));
#499=CARTESIAN_POINT('',(-2.58,4.4686910835277,-2.38));
#500=CARTESIAN_POINT('',(-2.58,4.4686910835277,0.));
#501=CARTESIAN_POINT('',(-2.75054998194614,-4.76409231748838,-0.059452275522248));
#502=CARTESIAN_POINT('',(5.50109996389229,-4.87890977618477E-16,-0.0594522755222477));
#503=CARTESIAN_POINT('',(-2.75054998194614,4.76409231748838,-0.0594522755222478));
#504=MECHANICAL_DESIGN_GEOMETRIC_PRESENTATION_REPRESENTATION('',(#232,#233,
#234,#235,#236,#237),#505);
#505=(
GEOMETRIC_REPRESENTATION_CONTEXT(3)
GLOBAL_UNCERTAINTY_ASSIGNED_CONTEXT((#506))
GLOBAL_UNIT_ASSIGNED_CONTEXT((#512,#508,#507))
REPRESENTATION_CONTEXT('aaa339365_a','TOP_LEVEL_ASSEMBLY_PART')
);
#506=UNCERTAINTY_MEASURE_WITH_UNIT(LENGTH_MEASURE(0.0508),#512,
'DISTANCE_ACCURACY_VALUE','Maximum Tolerance applied to model');
#507=(
NAMED_UNIT(*)
SI_UNIT($,.STERADIAN.)
SOLID_ANGLE_UNIT()
);
#508=(
CONVERSION_BASED_UNIT('DEGREE',#510)
NAMED_UNIT(#509)
PLANE_ANGLE_UNIT()
);
#509=DIMENSIONAL_EXPONENTS(0.,0.,0.,0.,0.,0.,0.);
#510=PLANE_ANGLE_MEASURE_WITH_UNIT(PLANE_ANGLE_MEASURE(0.0174532925),#511);
#511=(
NAMED_UNIT(*)
PLANE_ANGLE_UNIT()
SI_UNIT($,.RADIAN.)
);
#512=(
LENGTH_UNIT()
NAMED_UNIT(*)
SI_UNIT(.MILLI.,.METRE.)
);
ENDSEC;
END-ISO-10303-21;
