ISO-10303-21;
HEADER;
/* Generated by software containing ST-Developer
 * from STEP Tools, Inc. (www.steptools.com) 
 */
/* OPTION: using custom schema-name function */

FILE_DESCRIPTION(
/* description */ (''),
/* implementation_level */ '2;1');

FILE_NAME(
/* name */ 'aaa339352_a.stp',
/* time_stamp */ '2019-09-25T13:08:18+02:00',
/* author */ (''),
/* organization */ ('SMS'),
/* preprocessor_version */ 'ST-DEVELOPER v16.7',
/* originating_system */ 'SIEMENS PLM Software NX 12.0',
/* authorisation */ '');

FILE_SCHEMA (('AUTOMOTIVE_DESIGN { 1 0 10303 214 3 1 1 1 }'));
ENDSEC;

DATA;
#10=CONSTRUCTIVE_GEOMETRY_REPRESENTATION_RELATIONSHIP(
'supplemental geometry','',#26,#11);
#11=CONSTRUCTIVE_GEOMETRY_REPRESENTATION('supplemental geometry',(#191,
#192),#352);
#12=GEOMETRICALLY_BOUNDED_WIREFRAME_SHAPE_REPRESENTATION(
'AAA339352_A-None',(#27),#352);
#13=SHAPE_REPRESENTATION_RELATIONSHIP('None',
'relationship between AAA339352_A-None and AAA339352_A-None',#26,#15);
#14=SHAPE_REPRESENTATION_RELATIONSHIP('None',
'relationship between AAA339352_A-None and AAA339352_A-None',#26,#12);
#15=ADVANCED_BREP_SHAPE_REPRESENTATION('AAA339352_A-None',(#33),#352);
#16=SHAPE_DEFINITION_REPRESENTATION(#17,#26);
#17=PRODUCT_DEFINITION_SHAPE('','',#18);
#18=PRODUCT_DEFINITION(' ','',#20,#19);
#19=PRODUCT_DEFINITION_CONTEXT('part definition',#25,'design');
#20=PRODUCT_DEFINITION_FORMATION_WITH_SPECIFIED_SOURCE(' ',' ',#22,
 .NOT_KNOWN.);
#21=PRODUCT_RELATED_PRODUCT_CATEGORY('part','',(#22));
#22=PRODUCT('AAA339352_A','AAA339352_A','MASTER_INSERT',(#23));
#23=PRODUCT_CONTEXT(' ',#25,'mechanical');
#24=APPLICATION_PROTOCOL_DEFINITION('international standard',
'automotive_design',2010,#25);
#25=APPLICATION_CONTEXT(
'core data for automotive mechanical design processes');
#26=SHAPE_REPRESENTATION('AAA339352_A-None',(#190),#352);
#27=GEOMETRIC_CURVE_SET('None',(#254,#255,#170));
#28=SURFACE_STYLE_USAGE(.BOTH.,#29);
#29=SURFACE_SIDE_STYLE('',(#30));
#30=SURFACE_STYLE_FILL_AREA(#31);
#31=FILL_AREA_STYLE('',(#32));
#32=FILL_AREA_STYLE_COLOUR('',#189);
#33=MANIFOLD_SOLID_BREP('',#34);
#34=CLOSED_SHELL('',(#44,#45,#46,#47,#48,#49,#50,#51));
#35=CONICAL_SURFACE('',#196,0.397,6.99999999999999);
#36=CONICAL_SURFACE('',#200,0.4,6.99999999999999);
#37=CONICAL_SURFACE('',#204,0.4,6.99999999999999);
#38=CIRCLE('',#194,0.397);
#39=CIRCLE('',#195,0.153886569412249);
#40=CIRCLE('',#198,0.4);
#41=CIRCLE('',#199,0.156886569412249);
#42=CIRCLE('',#202,0.4);
#43=CIRCLE('',#203,0.156886569412249);
#44=ADVANCED_FACE('',(#57),#52,.F.);
#45=ADVANCED_FACE('',(#58),#35,.T.);
#46=ADVANCED_FACE('',(#59),#53,.F.);
#47=ADVANCED_FACE('',(#60),#36,.T.);
#48=ADVANCED_FACE('',(#61),#54,.F.);
#49=ADVANCED_FACE('',(#62),#37,.T.);
#50=ADVANCED_FACE('',(#63),#55,.T.);
#51=ADVANCED_FACE('',(#64),#56,.F.);
#52=PLANE('',#193);
#53=PLANE('',#197);
#54=PLANE('',#201);
#55=PLANE('',#205);
#56=PLANE('',#206);
#57=FACE_OUTER_BOUND('',#65,.T.);
#58=FACE_OUTER_BOUND('',#66,.T.);
#59=FACE_OUTER_BOUND('',#67,.T.);
#60=FACE_OUTER_BOUND('',#68,.T.);
#61=FACE_OUTER_BOUND('',#69,.T.);
#62=FACE_OUTER_BOUND('',#70,.T.);
#63=FACE_OUTER_BOUND('',#71,.T.);
#64=FACE_OUTER_BOUND('',#72,.T.);
#65=EDGE_LOOP('',(#73,#74,#75,#76));
#66=EDGE_LOOP('',(#77,#78,#79,#80));
#67=EDGE_LOOP('',(#81,#82,#83,#84));
#68=EDGE_LOOP('',(#85,#86,#87,#88));
#69=EDGE_LOOP('',(#89,#90,#91,#92));
#70=EDGE_LOOP('',(#93,#94,#95,#96));
#71=EDGE_LOOP('',(#97,#98,#99,#100,#101,#102));
#72=EDGE_LOOP('',(#103,#104,#105,#106,#107,#108));
#73=ORIENTED_EDGE('',*,*,#121,.T.);
#74=ORIENTED_EDGE('',*,*,#122,.F.);
#75=ORIENTED_EDGE('',*,*,#123,.F.);
#76=ORIENTED_EDGE('',*,*,#124,.T.);
#77=ORIENTED_EDGE('',*,*,#125,.T.);
#78=ORIENTED_EDGE('',*,*,#126,.F.);
#79=ORIENTED_EDGE('',*,*,#127,.F.);
#80=ORIENTED_EDGE('',*,*,#122,.T.);
#81=ORIENTED_EDGE('',*,*,#128,.T.);
#82=ORIENTED_EDGE('',*,*,#129,.F.);
#83=ORIENTED_EDGE('',*,*,#130,.F.);
#84=ORIENTED_EDGE('',*,*,#126,.T.);
#85=ORIENTED_EDGE('',*,*,#131,.T.);
#86=ORIENTED_EDGE('',*,*,#132,.F.);
#87=ORIENTED_EDGE('',*,*,#133,.F.);
#88=ORIENTED_EDGE('',*,*,#129,.T.);
#89=ORIENTED_EDGE('',*,*,#134,.T.);
#90=ORIENTED_EDGE('',*,*,#135,.F.);
#91=ORIENTED_EDGE('',*,*,#136,.F.);
#92=ORIENTED_EDGE('',*,*,#132,.T.);
#93=ORIENTED_EDGE('',*,*,#137,.T.);
#94=ORIENTED_EDGE('',*,*,#124,.F.);
#95=ORIENTED_EDGE('',*,*,#138,.F.);
#96=ORIENTED_EDGE('',*,*,#135,.T.);
#97=ORIENTED_EDGE('',*,*,#123,.T.);
#98=ORIENTED_EDGE('',*,*,#127,.T.);
#99=ORIENTED_EDGE('',*,*,#130,.T.);
#100=ORIENTED_EDGE('',*,*,#133,.T.);
#101=ORIENTED_EDGE('',*,*,#136,.T.);
#102=ORIENTED_EDGE('',*,*,#138,.T.);
#103=ORIENTED_EDGE('',*,*,#121,.F.);
#104=ORIENTED_EDGE('',*,*,#137,.F.);
#105=ORIENTED_EDGE('',*,*,#134,.F.);
#106=ORIENTED_EDGE('',*,*,#131,.F.);
#107=ORIENTED_EDGE('',*,*,#128,.F.);
#108=ORIENTED_EDGE('',*,*,#125,.F.);
#109=VERTEX_POINT('',#314);
#110=VERTEX_POINT('',#315);
#111=VERTEX_POINT('',#317);
#112=VERTEX_POINT('',#319);
#113=VERTEX_POINT('',#323);
#114=VERTEX_POINT('',#325);
#115=VERTEX_POINT('',#329);
#116=VERTEX_POINT('',#331);
#117=VERTEX_POINT('',#335);
#118=VERTEX_POINT('',#337);
#119=VERTEX_POINT('',#341);
#120=VERTEX_POINT('',#343);
#121=EDGE_CURVE('',#109,#110,#139,.T.);
#122=EDGE_CURVE('',#111,#110,#140,.T.);
#123=EDGE_CURVE('',#112,#111,#141,.T.);
#124=EDGE_CURVE('',#112,#109,#142,.T.);
#125=EDGE_CURVE('',#110,#113,#38,.T.);
#126=EDGE_CURVE('',#114,#113,#143,.T.);
#127=EDGE_CURVE('',#111,#114,#39,.T.);
#128=EDGE_CURVE('',#113,#115,#144,.T.);
#129=EDGE_CURVE('',#116,#115,#145,.T.);
#130=EDGE_CURVE('',#114,#116,#146,.T.);
#131=EDGE_CURVE('',#115,#117,#40,.T.);
#132=EDGE_CURVE('',#118,#117,#147,.T.);
#133=EDGE_CURVE('',#116,#118,#41,.T.);
#134=EDGE_CURVE('',#117,#119,#148,.T.);
#135=EDGE_CURVE('',#120,#119,#149,.T.);
#136=EDGE_CURVE('',#118,#120,#150,.T.);
#137=EDGE_CURVE('',#119,#109,#42,.T.);
#138=EDGE_CURVE('',#120,#112,#43,.T.);
#139=LINE('',#313,#151);
#140=LINE('',#316,#152);
#141=LINE('',#318,#153);
#142=LINE('',#320,#154);
#143=LINE('',#324,#155);
#144=LINE('',#328,#156);
#145=LINE('',#330,#157);
#146=LINE('',#332,#158);
#147=LINE('',#336,#159);
#148=LINE('',#340,#160);
#149=LINE('',#342,#161);
#150=LINE('',#344,#162);
#151=VECTOR('',#213,1.);
#152=VECTOR('',#214,1.);
#153=VECTOR('',#215,1.);
#154=VECTOR('',#216,1.);
#155=VECTOR('',#221,1.);
#156=VECTOR('',#226,1.);
#157=VECTOR('',#227,1.);
#158=VECTOR('',#228,1.);
#159=VECTOR('',#233,1.);
#160=VECTOR('',#238,1.);
#161=VECTOR('',#239,1.);
#162=VECTOR('',#240,1.);
#163=CURVE_STYLE('',#167,POSITIVE_LENGTH_MEASURE(0.18),#166);
#164=CURVE_STYLE('',#168,POSITIVE_LENGTH_MEASURE(0.18),#188);
#165=CURVE_STYLE('',#169,POSITIVE_LENGTH_MEASURE(0.18),#188);
#166=DRAUGHTING_PRE_DEFINED_COLOUR('blue');
#167=DRAUGHTING_PRE_DEFINED_CURVE_FONT('continuous');
#168=DRAUGHTING_PRE_DEFINED_CURVE_FONT('continuous');
#169=DRAUGHTING_PRE_DEFINED_CURVE_FONT('continuous');
#170=B_SPLINE_CURVE_WITH_KNOTS('CUTTING EDGE LINE',3,(#256,#257,#258,#259,
#260,#261,#262,#263,#264,#265,#266,#267,#268,#269,#270,#271,#272,#273,#274,
#275,#276,#277,#278,#279,#280,#281,#282,#283,#284,#285,#286,#287,#288,#289,
#290,#291,#292,#293,#294,#295,#296,#297,#298,#299,#300,#301,#302,#303,#304,
#305,#306,#307,#308,#309,#310),.UNSPECIFIED.,.T.,.F.,(1,1,2,1,1,1,1,1,1,
1,1,1,1,1,1,1,1,1,1,1,1,1,1,1,1,1,1,1,1,1,1,1,1,1,1,1,1,1,1,1,1,1,1,1,1,
1,1,1,1,1,1,1,1,1,2,1,1),(-0.0109466888,-0.00547334440000002,0.,0.14470860125,
0.287608344984375,0.288512773742188,0.2894172025,0.29079587866875,0.2921745548375,
0.294931907175,0.30044661185,0.305961316525,0.3114760212,0.316990725875,
0.32250543055,0.328020135225,0.3307774875625,0.33215616373125,0.3335348399,
0.334438413540625,0.33534198718125,0.4781066224,0.55039251365,0.621323044439062,
0.622000724669531,0.6226784049,0.62405708106875,0.6254357572375,0.628193109575,
0.63370781425,0.639222518925,0.6447372236,0.650251928275,0.65576663295,
0.661281337625,0.6640386899625,0.66541736613125,0.6667960423,0.667700471057812,
0.668604899815625,0.81150464355,0.883858944175,0.954856601663281,0.955534923231641,
0.9562132448,0.9575815809,0.958949917,0.9616865892,0.9671599336,0.972633278,
0.9781066224,0.9835799668,0.9890533112,0.9945266556,1.,1.14470860125,1.28760834498437),
 .UNSPECIFIED.);
#171=PRESENTATION_LAYER_ASSIGNMENT('1','Layer 1',(#254,#255,#170,#191,#192,
#33));
#172=STYLED_ITEM('',(#178),#254);
#173=STYLED_ITEM('',(#179),#255);
#174=STYLED_ITEM('',(#180),#170);
#175=STYLED_ITEM('',(#181),#191);
#176=STYLED_ITEM('',(#182),#192);
#177=STYLED_ITEM('',(#183),#33);
#178=PRESENTATION_STYLE_ASSIGNMENT((#184));
#179=PRESENTATION_STYLE_ASSIGNMENT((#185));
#180=PRESENTATION_STYLE_ASSIGNMENT((#163));
#181=PRESENTATION_STYLE_ASSIGNMENT((#164));
#182=PRESENTATION_STYLE_ASSIGNMENT((#165));
#183=PRESENTATION_STYLE_ASSIGNMENT((#28));
#184=POINT_STYLE('',#186,POSITIVE_LENGTH_MEASURE(3.),#188);
#185=POINT_STYLE('',#187,POSITIVE_LENGTH_MEASURE(3.),#188);
#186=PRE_DEFINED_POINT_MARKER_SYMBOL('plus');
#187=PRE_DEFINED_POINT_MARKER_SYMBOL('plus');
#188=COLOUR_RGB('Medium Weak Red',0.6,0.4,0.4);
#189=COLOUR_RGB('Pale Gray',0.8,0.8,0.8);
#190=AXIS2_PLACEMENT_3D('',#253,#207,#208);
#191=AXIS2_PLACEMENT_3D('MCS',#311,#209,#210);
#192=AXIS2_PLACEMENT_3D('PCS',#312,#211,#212);
#193=AXIS2_PLACEMENT_3D('',#321,#217,#218);
#194=AXIS2_PLACEMENT_3D('',#322,#219,#220);
#195=AXIS2_PLACEMENT_3D('',#326,#222,#223);
#196=AXIS2_PLACEMENT_3D('',#327,#224,#225);
#197=AXIS2_PLACEMENT_3D('',#333,#229,#230);
#198=AXIS2_PLACEMENT_3D('',#334,#231,#232);
#199=AXIS2_PLACEMENT_3D('',#338,#234,#235);
#200=AXIS2_PLACEMENT_3D('',#339,#236,#237);
#201=AXIS2_PLACEMENT_3D('',#345,#241,#242);
#202=AXIS2_PLACEMENT_3D('',#346,#243,#244);
#203=AXIS2_PLACEMENT_3D('',#347,#245,#246);
#204=AXIS2_PLACEMENT_3D('',#348,#247,#248);
#205=AXIS2_PLACEMENT_3D('',#349,#249,#250);
#206=AXIS2_PLACEMENT_3D('',#350,#251,#252);
#207=DIRECTION('',(0.,0.,1.));
#208=DIRECTION('',(1.,0.,0.));
#209=DIRECTION('',(0.,0.,1.));
#210=DIRECTION('',(1.45716771982052E-15,-1.,0.));
#211=DIRECTION('',(0.,0.,1.));
#212=DIRECTION('',(1.45716771982052E-15,-1.,0.));
#213=DIRECTION('',(0.,1.,0.));
#214=DIRECTION('',(-0.121869343405147,-1.33129477963973E-16,0.992546151641322));
#215=DIRECTION('',(0.,1.,0.));
#216=DIRECTION('',(-0.121869343405147,0.,0.992546151641322));
#217=DIRECTION('',(0.992546151641322,0.,0.121869343405147));
#218=DIRECTION('',(0.121869343405147,0.,-0.992546151641322));
#219=DIRECTION('',(0.,0.,-1.));
#220=DIRECTION('',(0.,1.,0.));
#221=DIRECTION('',(0.0609346717025737,0.105541947331387,0.992546151641322));
#222=DIRECTION('',(0.,0.,-1.));
#223=DIRECTION('',(-1.,0.,0.));
#224=DIRECTION('',(0.,0.,1.));
#225=DIRECTION('',(-6.16116174512575E-17,1.,0.));
#226=DIRECTION('',(0.866025403784438,-0.5,0.));
#227=DIRECTION('',(0.0609346717025735,0.105541947331387,0.992546151641322));
#228=DIRECTION('',(0.866025403784438,-0.5,0.));
#229=DIRECTION('',(-0.496273075820661,-0.859570181749866,0.121869343405147));
#230=DIRECTION('',(0.866025403784438,-0.5,0.));
#231=DIRECTION('',(0.,0.,-1.));
#232=DIRECTION('',(0.,1.,0.));
#233=DIRECTION('',(0.0609346717025737,-0.105541947331387,0.992546151641322));
#234=DIRECTION('',(0.,0.,-1.));
#235=DIRECTION('',(-1.,0.,0.));
#236=DIRECTION('',(0.,0.,1.));
#237=DIRECTION('',(-5.98498279237491E-17,1.,0.));
#238=DIRECTION('',(-0.866025403784438,-0.5,0.));
#239=DIRECTION('',(0.0609346717025741,-0.105541947331387,0.992546151641322));
#240=DIRECTION('',(-0.866025403784438,-0.5,0.));
#241=DIRECTION('',(-0.496273075820661,0.859570181749866,0.121869343405147));
#242=DIRECTION('',(-0.866025403784438,-0.5,0.));
#243=DIRECTION('',(0.,0.,-1.));
#244=DIRECTION('',(0.,1.,0.));
#245=DIRECTION('',(0.,0.,-1.));
#246=DIRECTION('',(-1.,0.,0.));
#247=DIRECTION('',(0.,0.,1.));
#248=DIRECTION('',(-6.161011698033E-17,1.,0.));
#249=DIRECTION('',(0.,0.,-1.));
#250=DIRECTION('',(-1.,0.,0.));
#251=DIRECTION('',(0.,0.,-1.));
#252=DIRECTION('',(-1.,0.,0.));
#253=CARTESIAN_POINT('',(0.,0.,0.));
#254=CARTESIAN_POINT('',(0.,0.,0.));
#255=CARTESIAN_POINT('',(-1.985,3.43812085302422,0.));
#256=CARTESIAN_POINT('',(-1.41950326448337,3.11163116054784,0.));
#257=CARTESIAN_POINT('',(-0.59625,2.63632566668713,0.));
#258=CARTESIAN_POINT('',(0.980334374999999,1.72608425338072,0.));
#259=CARTESIAN_POINT('',(2.5618765625,0.812980445692847,0.));
#260=CARTESIAN_POINT('',(3.3551265625,0.354997344658176,0.));
#261=CARTESIAN_POINT('',(3.37264681496597,0.344990806769075,0.));
#262=CARTESIAN_POINT('',(3.3923851187741,0.332822799110942,0.));
#263=CARTESIAN_POINT('',(3.42077209604529,0.312476355706463,0.));
#264=CARTESIAN_POINT('',(3.46680833142847,0.27212629087522,0.));
#265=CARTESIAN_POINT('',(3.52039000981833,0.20229776651172,0.));
#266=CARTESIAN_POINT('',(3.56080893400244,0.104716938302859,0.));
#267=CARTESIAN_POINT('',(3.57459553299284,3.46639036918894E-11,0.));
#268=CARTESIAN_POINT('',(3.56080893402619,-0.104716938225827,0.));
#269=CARTESIAN_POINT('',(3.52039000985621,-0.202297766465417,0.));
#270=CARTESIAN_POINT('',(3.46680833138245,-0.272126290923694,0.));
#271=CARTESIAN_POINT('',(3.4207720960258,-0.312476355727271,0.));
#272=CARTESIAN_POINT('',(3.39238511877018,-0.332822799115155,0.));
#273=CARTESIAN_POINT('',(3.37265145790737,-0.34498802331189,0.));
#274=CARTESIAN_POINT('',(3.355140625,-0.354989225670015,0.));
#275=CARTESIAN_POINT('',(2.562640625,-0.812539314002793,0.));
#276=CARTESIAN_POINT('',(1.37884375,-1.49600475844988,0.));
#277=CARTESIAN_POINT('',(-0.188820312499998,-2.40109602693316,0.));
#278=CARTESIAN_POINT('',(-0.977605468749998,-2.85650134922688,0.));
#279=CARTESIAN_POINT('',(-1.37385546875,-3.08527639339327,0.));
#280=CARTESIAN_POINT('',(-1.38880737691061,-3.09399039289595,0.));
#281=CARTESIAN_POINT('',(-1.40795956039833,-3.10430309183413,0.));
#282=CARTESIAN_POINT('',(-1.43977358589887,-3.1187137135854,0.));
#283=CARTESIAN_POINT('',(-1.49773588477866,-3.13840723050621,0.));
#284=CARTESIAN_POINT('',(-1.58499999998116,-3.14989606298749,0.));
#285=CARTESIAN_POINT('',(-1.68971693822442,-3.13610946402013,0.));
#286=CARTESIAN_POINT('',(-1.7872977664664,-3.09569053984351,0.));
#287=CARTESIAN_POINT('',(-1.87109199572319,-3.03139252577636,0.));
#288=CARTESIAN_POINT('',(-1.93539000981601,-2.94759829653172,0.));
#289=CARTESIAN_POINT('',(-1.96907244666878,-2.8662809395669,0.));
#290=CARTESIAN_POINT('',(-1.9809985101547,-2.80623735785165,0.));
#291=CARTESIAN_POINT('',(-1.98442555837746,-2.77148029271769,0.));
#292=CARTESIAN_POINT('',(-1.98509421021682,-2.74830241636958,0.));
#293=CARTESIAN_POINT('',(-1.985,-2.72812616370787,0.));
#294=CARTESIAN_POINT('',(-1.985,-1.81215996163853,0.));
#295=CARTESIAN_POINT('',(-1.985,-0.443935447297452,0.));
#296=CARTESIAN_POINT('',(-1.985,1.36796019617096,0.));
#297=CARTESIAN_POINT('',(-1.985,2.27963280666811,0.));
#298=CARTESIAN_POINT('',(-1.985,2.73761590770278,0.));
#299=CARTESIAN_POINT('',(-1.98507065766269,2.75486430892857,0.));
#300=CARTESIAN_POINT('',(-1.98442986668795,2.77648009692545,0.));
#301=CARTESIAN_POINT('',(-1.98102852132033,2.81097648409252,0.));
#302=CARTESIAN_POINT('',(-1.96919190329994,2.87056973898144,0.));
#303=CARTESIAN_POINT('',(-1.93576208476339,2.95127721564988,0.));
#304=CARTESIAN_POINT('',(-1.87194630580969,3.03444298817207,0.));
#305=CARTESIAN_POINT('',(-1.78878053327749,3.09825876715796,0.));
#306=CARTESIAN_POINT('',(-1.69193156126573,3.13837454941985,0.));
#307=CARTESIAN_POINT('',(-1.5880000000399,3.15205774892234,0.));
#308=CARTESIAN_POINT('',(-1.484068438686,3.13837454940704,0.));
#309=CARTESIAN_POINT('',(-1.41950326448337,3.11163116054784,0.));
#310=CARTESIAN_POINT('',(-0.59625,2.63632566668713,0.));
#311=CARTESIAN_POINT('',(0.,0.,0.));
#312=CARTESIAN_POINT('',(-1.985,3.43812085302422,0.));
#313=CARTESIAN_POINT('',(-1.985,-2.74530052999667,0.));
#314=CARTESIAN_POINT('',(-1.985,-2.74530052999667,0.));
#315=CARTESIAN_POINT('',(-1.985,2.75049668241938,0.));
#316=CARTESIAN_POINT('',(-1.985,2.75049668241938,1.77047265227155E-16));
#317=CARTESIAN_POINT('',(-1.74188656941225,2.75049668241938,-1.98));
#318=CARTESIAN_POINT('',(-1.74188656941225,-2.74530052999667,-1.98));
#319=CARTESIAN_POINT('',(-1.74188656941225,-2.74530052999667,-1.98));
#320=CARTESIAN_POINT('',(-1.985,-2.74530052999667,0.));
#321=CARTESIAN_POINT('',(-1.985,-2.74530052999667,0.));
#322=CARTESIAN_POINT('',(-1.588,2.75049668241938,0.));
#323=CARTESIAN_POINT('',(-1.3895,3.0943087677218,0.));
#324=CARTESIAN_POINT('',(-1.3895,3.0943087677218,0.));
#325=CARTESIAN_POINT('',(-1.51105671529388,2.88376636083162,-1.98));
#326=CARTESIAN_POINT('',(-1.588,2.75049668241938,-1.98));
#327=CARTESIAN_POINT('',(-1.588,2.75049668241938,0.));
#328=CARTESIAN_POINT('',(-1.3895,3.0943087677218,0.));
#329=CARTESIAN_POINT('',(3.37,0.346410161513776,0.));
#330=CARTESIAN_POINT('',(3.37,0.346410161513776,1.31146122390485E-17));
#331=CARTESIAN_POINT('',(3.24844328470612,0.135867754623599,-1.98));
#332=CARTESIAN_POINT('',(-1.51105671529388,2.88376636083162,-1.98));
#333=CARTESIAN_POINT('',(-1.3895,3.0943087677218,0.));
#334=CARTESIAN_POINT('',(3.17,0.,0.));
#335=CARTESIAN_POINT('',(3.37,-0.346410161513775,0.));
#336=CARTESIAN_POINT('',(3.37,-0.346410161513776,-2.24621480567619E-17));
#337=CARTESIAN_POINT('',(3.24844328470612,-0.135867754623598,-1.98));
#338=CARTESIAN_POINT('',(3.17,0.,-1.98));
#339=CARTESIAN_POINT('',(3.17,0.,0.));
#340=CARTESIAN_POINT('',(3.37,-0.346410161513776,0.));
#341=CARTESIAN_POINT('',(-1.385,-3.09171069151045,0.));
#342=CARTESIAN_POINT('',(-1.385,-3.09171069151045,-9.83595917928641E-17));
#343=CARTESIAN_POINT('',(-1.50655671529387,-2.88116828462027,-1.98));
#344=CARTESIAN_POINT('',(3.24844328470612,-0.135867754623598,-1.98));
#345=CARTESIAN_POINT('',(3.37,-0.346410161513776,0.));
#346=CARTESIAN_POINT('',(-1.585,-2.74530052999667,0.));
#347=CARTESIAN_POINT('',(-1.585,-2.74530052999667,-1.98));
#348=CARTESIAN_POINT('',(-1.585,-2.74530052999667,0.));
#349=CARTESIAN_POINT('',(-1.588,2.75049668241938,-1.98));
#350=CARTESIAN_POINT('',(-1.588,2.75049668241938,0.));
#351=MECHANICAL_DESIGN_GEOMETRIC_PRESENTATION_REPRESENTATION('',(#172,#173,
#174,#175,#176,#177),#352);
#352=(
GEOMETRIC_REPRESENTATION_CONTEXT(3)
GLOBAL_UNCERTAINTY_ASSIGNED_CONTEXT((#353))
GLOBAL_UNIT_ASSIGNED_CONTEXT((#359,#355,#354))
REPRESENTATION_CONTEXT('aaa339352_a','TOP_LEVEL_ASSEMBLY_PART')
);
#353=UNCERTAINTY_MEASURE_WITH_UNIT(LENGTH_MEASURE(2.E-5),#359,
'DISTANCE_ACCURACY_VALUE','Maximum Tolerance applied to model');
#354=(
NAMED_UNIT(*)
SI_UNIT($,.STERADIAN.)
SOLID_ANGLE_UNIT()
);
#355=(
CONVERSION_BASED_UNIT('DEGREE',#357)
NAMED_UNIT(#356)
PLANE_ANGLE_UNIT()
);
#356=DIMENSIONAL_EXPONENTS(0.,0.,0.,0.,0.,0.,0.);
#357=PLANE_ANGLE_MEASURE_WITH_UNIT(PLANE_ANGLE_MEASURE(0.0174532925),#358);
#358=(
NAMED_UNIT(*)
PLANE_ANGLE_UNIT()
SI_UNIT($,.RADIAN.)
);
#359=(
LENGTH_UNIT()
NAMED_UNIT(*)
SI_UNIT(.MILLI.,.METRE.)
);
ENDSEC;
END-ISO-10303-21;
