ISO-10303-21;
HEADER;
/* Generated by software containing ST-Developer
 * from STEP Tools, Inc. (www.steptools.com) 
 */
/* OPTION: using custom schema-name function */

FILE_DESCRIPTION(
/* description */ (''),
/* implementation_level */ '2;1');

FILE_NAME(
/* name */ 'aaa339331_a.stp',
/* time_stamp */ '2019-09-25T12:25:28+02:00',
/* author */ (''),
/* organization */ ('SMS'),
/* preprocessor_version */ 'ST-DEVELOPER v16.7',
/* originating_system */ 'SIEMENS PLM Software NX 12.0',
/* authorisation */ '');

FILE_SCHEMA (('AUTOMOTIVE_DESIGN { 1 0 10303 214 3 1 1 1 }'));
ENDSEC;

DATA;
#10=CONSTRUCTIVE_GEOMETRY_REPRESENTATION_RELATIONSHIP(
'supplemental geometry','',#26,#11);
#11=CONSTRUCTIVE_GEOMETRY_REPRESENTATION('supplemental geometry',(#211,
#212),#403);
#12=GEOMETRICALLY_BOUNDED_WIREFRAME_SHAPE_REPRESENTATION(
'AAA339331_A-None',(#27),#403);
#13=SHAPE_REPRESENTATION_RELATIONSHIP('None',
'relationship between AAA339331_A-None and AAA339331_A-None',#26,#15);
#14=SHAPE_REPRESENTATION_RELATIONSHIP('None',
'relationship between AAA339331_A-None and AAA339331_A-None',#26,#12);
#15=ADVANCED_BREP_SHAPE_REPRESENTATION('AAA339331_A-None',(#33),#403);
#16=SHAPE_DEFINITION_REPRESENTATION(#17,#26);
#17=PRODUCT_DEFINITION_SHAPE('','',#18);
#18=PRODUCT_DEFINITION(' ','',#20,#19);
#19=PRODUCT_DEFINITION_CONTEXT('part definition',#25,'design');
#20=PRODUCT_DEFINITION_FORMATION_WITH_SPECIFIED_SOURCE(' ',' ',#22,
 .NOT_KNOWN.);
#21=PRODUCT_RELATED_PRODUCT_CATEGORY('part','',(#22));
#22=PRODUCT('AAA339331_A','AAA339331_A','MASTER_INSERT',(#23));
#23=PRODUCT_CONTEXT(' ',#25,'mechanical');
#24=APPLICATION_PROTOCOL_DEFINITION('international standard',
'automotive_design',2010,#25);
#25=APPLICATION_CONTEXT(
'core data for automotive mechanical design processes');
#26=SHAPE_REPRESENTATION('AAA339331_A-None',(#210),#403);
#27=GEOMETRIC_CURVE_SET('None',(#279,#280,#189));
#28=SURFACE_STYLE_USAGE(.BOTH.,#29);
#29=SURFACE_SIDE_STYLE('',(#30));
#30=SURFACE_STYLE_FILL_AREA(#31);
#31=FILL_AREA_STYLE('',(#32));
#32=FILL_AREA_STYLE_COLOUR('',#209);
#33=MANIFOLD_SOLID_BREP('',#34);
#34=CLOSED_SHELL('',(#45,#46,#47,#48,#49,#50,#51,#52,#53));
#35=CYLINDRICAL_SURFACE('',#227,0.02);
#36=ELLIPSE('',#224,0.0205942146593113,0.02);
#37=CONICAL_SURFACE('',#215,0.198,6.99999999999999);
#38=CONICAL_SURFACE('',#219,0.4,6.99999999999999);
#39=CONICAL_SURFACE('',#223,0.4,6.99999999999999);
#40=CIRCLE('',#214,0.198);
#41=CIRCLE('',#217,0.4);
#42=CIRCLE('',#218,0.156886569412249);
#43=CIRCLE('',#221,0.4);
#44=CIRCLE('',#222,0.156886569412249);
#45=ADVANCED_FACE('',(#59),#54,.F.);
#46=ADVANCED_FACE('',(#60),#37,.T.);
#47=ADVANCED_FACE('',(#61),#55,.F.);
#48=ADVANCED_FACE('',(#62),#38,.T.);
#49=ADVANCED_FACE('',(#63),#56,.F.);
#50=ADVANCED_FACE('',(#64),#39,.T.);
#51=ADVANCED_FACE('',(#65),#57,.T.);
#52=ADVANCED_FACE('',(#66),#58,.F.);
#53=ADVANCED_FACE('',(#67),#35,.T.);
#54=PLANE('',#213);
#55=PLANE('',#216);
#56=PLANE('',#220);
#57=PLANE('',#225);
#58=PLANE('',#226);
#59=FACE_OUTER_BOUND('',#68,.T.);
#60=FACE_OUTER_BOUND('',#69,.T.);
#61=FACE_OUTER_BOUND('',#70,.T.);
#62=FACE_OUTER_BOUND('',#71,.T.);
#63=FACE_OUTER_BOUND('',#72,.T.);
#64=FACE_OUTER_BOUND('',#73,.T.);
#65=FACE_OUTER_BOUND('',#74,.T.);
#66=FACE_OUTER_BOUND('',#75,.T.);
#67=FACE_OUTER_BOUND('',#76,.T.);
#68=EDGE_LOOP('',(#77,#78,#79,#80,#81));
#69=EDGE_LOOP('',(#82,#83,#84,#85));
#70=EDGE_LOOP('',(#86,#87,#88,#89,#90));
#71=EDGE_LOOP('',(#91,#92,#93,#94));
#72=EDGE_LOOP('',(#95,#96,#97,#98));
#73=EDGE_LOOP('',(#99,#100,#101,#102));
#74=EDGE_LOOP('',(#103,#104,#105,#106,#107,#108));
#75=EDGE_LOOP('',(#109,#110,#111,#112,#113,#114));
#76=EDGE_LOOP('',(#115,#116,#117,#118));
#77=ORIENTED_EDGE('',*,*,#133,.F.);
#78=ORIENTED_EDGE('',*,*,#134,.T.);
#79=ORIENTED_EDGE('',*,*,#135,.F.);
#80=ORIENTED_EDGE('',*,*,#136,.T.);
#81=ORIENTED_EDGE('',*,*,#137,.T.);
#82=ORIENTED_EDGE('',*,*,#138,.F.);
#83=ORIENTED_EDGE('',*,*,#139,.T.);
#84=ORIENTED_EDGE('',*,*,#133,.T.);
#85=ORIENTED_EDGE('',*,*,#140,.T.);
#86=ORIENTED_EDGE('',*,*,#141,.F.);
#87=ORIENTED_EDGE('',*,*,#142,.T.);
#88=ORIENTED_EDGE('',*,*,#138,.T.);
#89=ORIENTED_EDGE('',*,*,#143,.T.);
#90=ORIENTED_EDGE('',*,*,#144,.F.);
#91=ORIENTED_EDGE('',*,*,#145,.T.);
#92=ORIENTED_EDGE('',*,*,#146,.F.);
#93=ORIENTED_EDGE('',*,*,#147,.F.);
#94=ORIENTED_EDGE('',*,*,#144,.T.);
#95=ORIENTED_EDGE('',*,*,#148,.T.);
#96=ORIENTED_EDGE('',*,*,#149,.F.);
#97=ORIENTED_EDGE('',*,*,#150,.F.);
#98=ORIENTED_EDGE('',*,*,#146,.T.);
#99=ORIENTED_EDGE('',*,*,#151,.T.);
#100=ORIENTED_EDGE('',*,*,#136,.F.);
#101=ORIENTED_EDGE('',*,*,#152,.F.);
#102=ORIENTED_EDGE('',*,*,#149,.T.);
#103=ORIENTED_EDGE('',*,*,#135,.T.);
#104=ORIENTED_EDGE('',*,*,#153,.T.);
#105=ORIENTED_EDGE('',*,*,#141,.T.);
#106=ORIENTED_EDGE('',*,*,#147,.T.);
#107=ORIENTED_EDGE('',*,*,#150,.T.);
#108=ORIENTED_EDGE('',*,*,#152,.T.);
#109=ORIENTED_EDGE('',*,*,#137,.F.);
#110=ORIENTED_EDGE('',*,*,#151,.F.);
#111=ORIENTED_EDGE('',*,*,#148,.F.);
#112=ORIENTED_EDGE('',*,*,#145,.F.);
#113=ORIENTED_EDGE('',*,*,#143,.F.);
#114=ORIENTED_EDGE('',*,*,#140,.F.);
#115=ORIENTED_EDGE('',*,*,#153,.F.);
#116=ORIENTED_EDGE('',*,*,#134,.F.);
#117=ORIENTED_EDGE('',*,*,#139,.F.);
#118=ORIENTED_EDGE('',*,*,#142,.F.);
#119=VERTEX_POINT('',#335);
#120=VERTEX_POINT('',#336);
#121=VERTEX_POINT('',#338);
#122=VERTEX_POINT('',#340);
#123=VERTEX_POINT('',#342);
#124=VERTEX_POINT('',#346);
#125=VERTEX_POINT('',#347);
#126=VERTEX_POINT('',#376);
#127=VERTEX_POINT('',#377);
#128=VERTEX_POINT('',#380);
#129=VERTEX_POINT('',#384);
#130=VERTEX_POINT('',#386);
#131=VERTEX_POINT('',#390);
#132=VERTEX_POINT('',#392);
#133=EDGE_CURVE('',#119,#120,#154,.T.);
#134=EDGE_CURVE('',#119,#121,#155,.T.);
#135=EDGE_CURVE('',#122,#121,#156,.T.);
#136=EDGE_CURVE('',#122,#123,#157,.T.);
#137=EDGE_CURVE('',#123,#120,#158,.T.);
#138=EDGE_CURVE('',#124,#125,#159,.T.);
#139=EDGE_CURVE('',#124,#119,#190,.T.);
#140=EDGE_CURVE('',#120,#125,#40,.T.);
#141=EDGE_CURVE('',#126,#127,#160,.T.);
#142=EDGE_CURVE('',#126,#124,#161,.T.);
#143=EDGE_CURVE('',#125,#128,#162,.T.);
#144=EDGE_CURVE('',#127,#128,#163,.T.);
#145=EDGE_CURVE('',#128,#129,#41,.T.);
#146=EDGE_CURVE('',#130,#129,#164,.T.);
#147=EDGE_CURVE('',#127,#130,#42,.T.);
#148=EDGE_CURVE('',#129,#131,#165,.T.);
#149=EDGE_CURVE('',#132,#131,#166,.T.);
#150=EDGE_CURVE('',#130,#132,#167,.T.);
#151=EDGE_CURVE('',#131,#123,#43,.T.);
#152=EDGE_CURVE('',#132,#122,#44,.T.);
#153=EDGE_CURVE('',#121,#126,#36,.T.);
#154=LINE('',#334,#168);
#155=LINE('',#337,#169);
#156=LINE('',#339,#170);
#157=LINE('',#341,#171);
#158=LINE('',#343,#172);
#159=LINE('',#345,#173);
#160=LINE('',#375,#174);
#161=LINE('',#378,#175);
#162=LINE('',#379,#176);
#163=LINE('',#381,#177);
#164=LINE('',#385,#178);
#165=LINE('',#389,#179);
#166=LINE('',#391,#180);
#167=LINE('',#393,#181);
#168=VECTOR('',#234,1.);
#169=VECTOR('',#235,1.);
#170=VECTOR('',#236,1.);
#171=VECTOR('',#237,1.);
#172=VECTOR('',#238,1.);
#173=VECTOR('',#241,1.);
#174=VECTOR('',#246,1.);
#175=VECTOR('',#247,1.);
#176=VECTOR('',#248,1.);
#177=VECTOR('',#249,1.);
#178=VECTOR('',#254,1.);
#179=VECTOR('',#259,1.);
#180=VECTOR('',#260,1.);
#181=VECTOR('',#261,1.);
#182=CURVE_STYLE('',#186,POSITIVE_LENGTH_MEASURE(0.18),#185);
#183=CURVE_STYLE('',#187,POSITIVE_LENGTH_MEASURE(0.18),#208);
#184=CURVE_STYLE('',#188,POSITIVE_LENGTH_MEASURE(0.18),#208);
#185=DRAUGHTING_PRE_DEFINED_COLOUR('blue');
#186=DRAUGHTING_PRE_DEFINED_CURVE_FONT('continuous');
#187=DRAUGHTING_PRE_DEFINED_CURVE_FONT('continuous');
#188=DRAUGHTING_PRE_DEFINED_CURVE_FONT('continuous');
#189=B_SPLINE_CURVE_WITH_KNOTS('CUTTING EDGE LINE',3,(#281,#282,#283,#284,
#285,#286,#287,#288,#289,#290,#291,#292,#293,#294,#295,#296,#297,#298,#299,
#300,#301,#302,#303,#304,#305,#306,#307,#308,#309,#310,#311,#312,#313,#314,
#315,#316,#317,#318,#319,#320,#321,#322,#323,#324,#325,#326,#327,#328,#329,
#330,#331),.UNSPECIFIED.,.T.,.F.,(1,1,2,1,1,1,1,1,1,1,1,1,1,1,1,1,1,1,1,
1,1,1,1,1,1,1,1,1,1,1,1,1,1,1,1,1,1,1,1,1,1,1,1,1,1,1,1,1,1,1,2,1,1),(-0.01076459975,
-0.00538229987499994,0.,0.1516080546,0.30226855885875,0.302742334029375,
0.3032161092,0.30457527583125,0.3059344424625,0.308652775725,0.31408944225,
0.319526108775,0.3249627753,0.330399441825,0.33583610835,0.341272774875,
0.3439911081375,0.34535027476875,0.3467094414,0.3476002286425,0.348491015885,
0.4892354002,0.5604983796,0.63042517813625,0.631093268568125,0.631761359,
0.633120525634375,0.63447969226875,0.6371980255375,0.642634692075,0.6480713586125,
0.65350802515,0.6589446916875,0.664381358225,0.6698180247625,0.67253635803125,
0.673895524665625,0.6752546913,0.675728466470625,0.67620224164125,0.8268627459,
0.9026667732,0.977049474988125,0.977760137744063,0.9784708005,0.97981637546875,
0.9811619504375,0.983853100375,0.98923540025,0.994617700125,1.,1.1516080546,
1.30226855885875),.UNSPECIFIED.);
#190=B_SPLINE_CURVE_WITH_KNOTS('',3,(#348,#349,#350,#351,#352,#353,#354,
#355,#356,#357,#358,#359,#360,#361,#362,#363,#364,#365,#366,#367,#368,#369,
#370,#371,#372),.UNSPECIFIED.,.F.,.F.,(4,3,3,3,3,3,3,3,4),(0.,0.0477729013447147,
0.210924120922128,0.3741317727858,0.500009229268957,0.66186292279776,0.823683652003534,
0.95222709865529,1.),.UNSPECIFIED.);
#191=PRESENTATION_LAYER_ASSIGNMENT('1','Layer 1',(#279,#280,#189,#211,#212,
#33));
#192=STYLED_ITEM('',(#198),#279);
#193=STYLED_ITEM('',(#199),#280);
#194=STYLED_ITEM('',(#200),#189);
#195=STYLED_ITEM('',(#201),#211);
#196=STYLED_ITEM('',(#202),#212);
#197=STYLED_ITEM('',(#203),#33);
#198=PRESENTATION_STYLE_ASSIGNMENT((#204));
#199=PRESENTATION_STYLE_ASSIGNMENT((#205));
#200=PRESENTATION_STYLE_ASSIGNMENT((#182));
#201=PRESENTATION_STYLE_ASSIGNMENT((#183));
#202=PRESENTATION_STYLE_ASSIGNMENT((#184));
#203=PRESENTATION_STYLE_ASSIGNMENT((#28));
#204=POINT_STYLE('',#206,POSITIVE_LENGTH_MEASURE(3.),#208);
#205=POINT_STYLE('',#207,POSITIVE_LENGTH_MEASURE(3.),#208);
#206=PRE_DEFINED_POINT_MARKER_SYMBOL('plus');
#207=PRE_DEFINED_POINT_MARKER_SYMBOL('plus');
#208=COLOUR_RGB('Medium Weak Red',0.6,0.4,0.4);
#209=COLOUR_RGB('Pale Gray',0.8,0.8,0.8);
#210=AXIS2_PLACEMENT_3D('',#278,#228,#229);
#211=AXIS2_PLACEMENT_3D('MCS',#332,#230,#231);
#212=AXIS2_PLACEMENT_3D('PCS',#333,#232,#233);
#213=AXIS2_PLACEMENT_3D('',#344,#239,#240);
#214=AXIS2_PLACEMENT_3D('',#373,#242,#243);
#215=AXIS2_PLACEMENT_3D('',#374,#244,#245);
#216=AXIS2_PLACEMENT_3D('',#382,#250,#251);
#217=AXIS2_PLACEMENT_3D('',#383,#252,#253);
#218=AXIS2_PLACEMENT_3D('',#387,#255,#256);
#219=AXIS2_PLACEMENT_3D('',#388,#257,#258);
#220=AXIS2_PLACEMENT_3D('',#394,#262,#263);
#221=AXIS2_PLACEMENT_3D('',#395,#264,#265);
#222=AXIS2_PLACEMENT_3D('',#396,#266,#267);
#223=AXIS2_PLACEMENT_3D('',#397,#268,#269);
#224=AXIS2_PLACEMENT_3D('',#398,#270,#271);
#225=AXIS2_PLACEMENT_3D('',#399,#272,#273);
#226=AXIS2_PLACEMENT_3D('',#400,#274,#275);
#227=AXIS2_PLACEMENT_3D('',#401,#276,#277);
#228=DIRECTION('',(0.,0.,1.));
#229=DIRECTION('',(1.,0.,0.));
#230=DIRECTION('',(0.,0.,1.));
#231=DIRECTION('',(1.45716771982052E-15,-1.,0.));
#232=DIRECTION('',(0.,0.,1.));
#233=DIRECTION('',(1.45716771982052E-15,-1.,0.));
#234=DIRECTION('',(-0.121869343405147,0.,0.992546151641322));
#235=DIRECTION('',(0.119241799635598,-0.206532855354804,-0.971146524927447));
#236=DIRECTION('',(7.42543791388473E-17,1.,0.));
#237=DIRECTION('',(-0.121869343405147,9.0493324306082E-18,0.992546151641322));
#238=DIRECTION('',(7.42543791388473E-17,1.,0.));
#239=DIRECTION('',(0.992546151641322,-7.37008982567786E-17,0.121869343405147));
#240=DIRECTION('',(0.121869343405147,0.,-0.992546151641322));
#241=DIRECTION('',(0.0609346717025737,0.105541947331387,0.992546151641322));
#242=DIRECTION('',(0.,0.,-1.));
#243=DIRECTION('',(0.,1.,0.));
#244=DIRECTION('',(0.,0.,1.));
#245=DIRECTION('',(-6.17113121704338E-17,1.,0.));
#246=DIRECTION('',(0.866025403784438,-0.5,0.));
#247=DIRECTION('',(-0.119241799635598,0.206532855354804,0.971146524927447));
#248=DIRECTION('',(0.866025403784438,-0.5,0.));
#249=DIRECTION('',(0.0609346717025735,0.105541947331387,0.992546151641322));
#250=DIRECTION('',(-0.496273075820661,-0.859570181749866,0.121869343405147));
#251=DIRECTION('',(0.866025403784438,-0.5,0.));
#252=DIRECTION('',(0.,0.,-1.));
#253=DIRECTION('',(0.,1.,0.));
#254=DIRECTION('',(0.0609346717025737,-0.105541947331387,0.992546151641322));
#255=DIRECTION('',(0.,0.,-1.));
#256=DIRECTION('',(-1.,0.,0.));
#257=DIRECTION('',(0.,0.,1.));
#258=DIRECTION('',(-5.98498279237491E-17,1.,0.));
#259=DIRECTION('',(-0.866025403784438,-0.5,0.));
#260=DIRECTION('',(0.0609346717025741,-0.105541947331387,0.992546151641322));
#261=DIRECTION('',(-0.866025403784438,-0.5,0.));
#262=DIRECTION('',(-0.496273075820661,0.859570181749866,0.121869343405147));
#263=DIRECTION('',(-0.866025403784438,-0.5,0.));
#264=DIRECTION('',(0.,0.,-1.));
#265=DIRECTION('',(0.,1.,0.));
#266=DIRECTION('',(0.,0.,-1.));
#267=DIRECTION('',(-1.,0.,0.));
#268=DIRECTION('',(0.,0.,1.));
#269=DIRECTION('',(-6.161011698033E-17,1.,0.));
#270=DIRECTION('',(0.,0.,-1.));
#271=DIRECTION('',(-0.5,0.866025403784439,0.));
#272=DIRECTION('',(0.,0.,-1.));
#273=DIRECTION('',(-1.,0.,0.));
#274=DIRECTION('',(0.,0.,-1.));
#275=DIRECTION('',(-1.,0.,0.));
#276=DIRECTION('',(-0.119241799635598,0.206532855354804,0.971146524927446));
#277=DIRECTION('',(0.,-0.978125209399254,0.208017005885735));
#278=CARTESIAN_POINT('',(0.,0.,0.));
#279=CARTESIAN_POINT('',(0.,0.,0.));
#280=CARTESIAN_POINT('',(-1.985,3.43812085302422,0.));
#281=CARTESIAN_POINT('',(-1.71792768950986,3.28392658266965,0.));
#282=CARTESIAN_POINT('',(-0.845000000000001,2.77994154614805,0.));
#283=CARTESIAN_POINT('',(0.835731249999999,1.80957090652513,0.));
#284=CARTESIAN_POINT('',(2.519096875,0.83767930978682,0.));
#285=CARTESIAN_POINT('',(3.362096875,0.350973032859966,0.));
#286=CARTESIAN_POINT('',(3.37494816532579,0.343611140528862,0.));
#287=CARTESIAN_POINT('',(3.3923851187741,0.332822799110942,0.));
#288=CARTESIAN_POINT('',(3.42077209604529,0.312476355706463,0.));
#289=CARTESIAN_POINT('',(3.46680833142847,0.27212629087522,0.));
#290=CARTESIAN_POINT('',(3.52039000981833,0.20229776651172,0.));
#291=CARTESIAN_POINT('',(3.56080893400244,0.104716938302859,0.));
#292=CARTESIAN_POINT('',(3.57459553299284,3.46639036918894E-11,0.));
#293=CARTESIAN_POINT('',(3.56080893402619,-0.104716938225827,0.));
#294=CARTESIAN_POINT('',(3.52039000985621,-0.202297766465417,0.));
#295=CARTESIAN_POINT('',(3.46680833138245,-0.272126290923694,0.));
#296=CARTESIAN_POINT('',(3.4207720960258,-0.312476355727271,0.));
#297=CARTESIAN_POINT('',(3.39238511877018,-0.332822799115155,0.));
#298=CARTESIAN_POINT('',(3.37265145790006,-0.34498802331624,0.));
#299=CARTESIAN_POINT('',(3.355140625,-0.354989225670015,0.));
#300=CARTESIAN_POINT('',(2.562640625,-0.812539314002793,0.));
#301=CARTESIAN_POINT('',(1.37884375,-1.49600475844988,0.));
#302=CARTESIAN_POINT('',(-0.188820312499998,-2.40109602693316,0.));
#303=CARTESIAN_POINT('',(-0.977605468749997,-2.85650134922688,0.));
#304=CARTESIAN_POINT('',(-1.37385546875,-3.08527639339327,0.));
#305=CARTESIAN_POINT('',(-1.38880737691697,-3.09399039289953,0.));
#306=CARTESIAN_POINT('',(-1.40795956039833,-3.10430309183413,0.));
#307=CARTESIAN_POINT('',(-1.43977358589887,-3.1187137135854,0.));
#308=CARTESIAN_POINT('',(-1.49773588477866,-3.13840723050621,0.));
#309=CARTESIAN_POINT('',(-1.58499999998116,-3.14989606298749,0.));
#310=CARTESIAN_POINT('',(-1.68971693822441,-3.13610946402013,0.));
#311=CARTESIAN_POINT('',(-1.7872977664664,-3.09569053984351,0.));
#312=CARTESIAN_POINT('',(-1.87109199572319,-3.03139252577636,0.));
#313=CARTESIAN_POINT('',(-1.93539000981601,-2.94759829653172,0.));
#314=CARTESIAN_POINT('',(-1.96907244666878,-2.8662809395669,0.));
#315=CARTESIAN_POINT('',(-1.9809985101547,-2.80623735785165,0.));
#316=CARTESIAN_POINT('',(-1.98442555837746,-2.77148029271769,0.));
#317=CARTESIAN_POINT('',(-1.98505005938397,-2.7509852773774,0.));
#318=CARTESIAN_POINT('',(-1.985,-2.73617478730429,0.));
#319=CARTESIAN_POINT('',(-1.985,-1.76276223345058,0.));
#320=CARTESIAN_POINT('',(-1.985,-0.305685316900813,0.));
#321=CARTESIAN_POINT('',(-1.985,1.62593021965264,0.));
#322=CARTESIAN_POINT('',(-1.985,2.59477990216016,0.));
#323=CARTESIAN_POINT('',(-1.985,3.08148617908702,0.));
#324=CARTESIAN_POINT('',(-1.9851528145533,3.09925170143434,0.));
#325=CARTESIAN_POINT('',(-1.98384263844663,3.12108990424577,0.));
#326=CARTESIAN_POINT('',(-1.97705424543746,3.15505452127837,0.));
#327=CARTESIAN_POINT('',(-1.95384008699408,3.2114434584722,0.));
#328=CARTESIAN_POINT('',(-1.89062944623409,3.27466625911704,0.));
#329=CARTESIAN_POINT('',(-1.78700000001003,3.30242300358463,0.));
#330=CARTESIAN_POINT('',(-1.71792768950986,3.28392658266965,0.));
#331=CARTESIAN_POINT('',(-0.845000000000001,2.77994154614805,0.));
#332=CARTESIAN_POINT('',(0.,0.,0.));
#333=CARTESIAN_POINT('',(-1.985,3.43812085302422,0.));
#334=CARTESIAN_POINT('',(-1.985,3.09517479312558,-6.55730611952427E-18));
#335=CARTESIAN_POINT('',(-1.80685092303283,3.09517479312558,-1.45090779864457));
#336=CARTESIAN_POINT('',(-1.985,3.09517479312558,0.));
#337=CARTESIAN_POINT('',(-1.83356547878909,3.14144576099707,-1.23333520189611));
#338=CARTESIAN_POINT('',(-1.74188656941225,2.98265323197387,-1.98));
#339=CARTESIAN_POINT('',(-1.74188656941225,-2.74530052999667,-1.98));
#340=CARTESIAN_POINT('',(-1.74188656941225,-2.74530052999667,-1.98));
#341=CARTESIAN_POINT('',(-1.985,-2.74530052999667,0.));
#342=CARTESIAN_POINT('',(-1.985,-2.74530052999667,0.));
#343=CARTESIAN_POINT('',(-1.985,-2.74530052999667,0.));
#344=CARTESIAN_POINT('',(-1.985,-2.74530052999667,0.));
#345=CARTESIAN_POINT('',(-1.688,3.2666478230749,5.60655497035474E-18));
#346=CARTESIAN_POINT('',(-1.77707453848359,3.11236619676058,-1.45090779864457));
#347=CARTESIAN_POINT('',(-1.688,3.2666478230749,0.));
#348=CARTESIAN_POINT('',(-1.77707453848359,3.11236619676058,-1.45090779864457));
#349=CARTESIAN_POINT('',(-1.77764438411738,3.11268532356579,-1.45097744010841));
#350=CARTESIAN_POINT('',(-1.77823089579327,3.11297756720247,-1.45104129986792));
#351=CARTESIAN_POINT('',(-1.77882972568919,3.11323984731091,-1.45110476480393));
#352=CARTESIAN_POINT('',(-1.78087481453849,3.11413557100279,-1.45132150654281));
#353=CARTESIAN_POINT('',(-1.7831049038721,3.11469262513007,-1.45151404594807));
#354=CARTESIAN_POINT('',(-1.78533642493225,3.11486243023061,-1.45166625074773));
#355=CARTESIAN_POINT('',(-1.78756840998239,3.11503227063795,-1.45181848719464));
#356=CARTESIAN_POINT('',(-1.78986363456098,3.11481908608132,-1.45193455451998));
#357=CARTESIAN_POINT('',(-1.79202974661018,3.11423870395518,-1.45200451266279));
#358=CARTESIAN_POINT('',(-1.79371008987465,3.11378847738595,-1.45205878210565));
#359=CARTESIAN_POINT('',(-1.79534580620474,3.11311107442842,-1.45208664941159));
#360=CARTESIAN_POINT('',(-1.79685308917981,3.11224084419705,-1.45208664941159));
#361=CARTESIAN_POINT('',(-1.79878031908181,3.11112815749437,-1.4520866494116));
#362=CARTESIAN_POINT('',(-1.80054301615972,3.10966918858784,-1.45204058890458));
#363=CARTESIAN_POINT('',(-1.80199557973335,3.10798557142431,-1.45195238967155));
#364=CARTESIAN_POINT('',(-1.80344797855334,3.10630214522114,-1.45186420044231));
#365=CARTESIAN_POINT('',(-1.80463032493935,3.10434806345952,-1.45173148545937));
#366=CARTESIAN_POINT('',(-1.80544734248687,3.10228504241125,-1.45156538327567));
#367=CARTESIAN_POINT('',(-1.8060997625917,3.10063764032952,-1.451432744259));
#368=CARTESIAN_POINT('',(-1.8065344171973,3.09888934568048,-1.45127645099177));
#369=CARTESIAN_POINT('',(-1.80672993300064,3.0971316551092,-1.45110476480392));
#370=CARTESIAN_POINT('',(-1.80680220671178,3.09648191315256,-1.45104129986792));
#371=CARTESIAN_POINT('',(-1.80684237213627,3.09582785732329,-1.45097744010841));
#372=CARTESIAN_POINT('',(-1.80685092303283,3.09517479312558,-1.45090779864457));
#373=CARTESIAN_POINT('',(-1.787,3.09517479312558,0.));
#374=CARTESIAN_POINT('',(-1.787,3.09517479312558,0.));
#375=CARTESIAN_POINT('',(-1.80955671529388,3.05610541618473,-1.98));
#376=CARTESIAN_POINT('',(-1.71211018486301,2.99984463560887,-1.98));
#377=CARTESIAN_POINT('',(3.24844328470612,0.135867754623599,-1.98));
#378=CARTESIAN_POINT('',(-1.94762452042973,3.40776743072126,-0.0618896623903508));
#379=CARTESIAN_POINT('',(-1.688,3.2666478230749,0.));
#380=CARTESIAN_POINT('',(3.37,0.346410161513776,0.));
#381=CARTESIAN_POINT('',(3.37,0.346410161513776,7.86876734342913E-17));
#382=CARTESIAN_POINT('',(-1.688,3.2666478230749,0.));
#383=CARTESIAN_POINT('',(3.17,0.,0.));
#384=CARTESIAN_POINT('',(3.37,-0.346410161513775,0.));
#385=CARTESIAN_POINT('',(3.37,-0.346410161513776,-2.24621480567619E-17));
#386=CARTESIAN_POINT('',(3.24844328470612,-0.135867754623598,-1.98));
#387=CARTESIAN_POINT('',(3.17,0.,-1.98));
#388=CARTESIAN_POINT('',(3.17,0.,0.));
#389=CARTESIAN_POINT('',(3.37,-0.346410161513776,0.));
#390=CARTESIAN_POINT('',(-1.385,-3.09171069151045,0.));
#391=CARTESIAN_POINT('',(-1.385,-3.09171069151045,-9.83595917928641E-17));
#392=CARTESIAN_POINT('',(-1.50655671529387,-2.88116828462027,-1.98));
#393=CARTESIAN_POINT('',(3.24844328470612,-0.135867754623598,-1.98));
#394=CARTESIAN_POINT('',(3.37,-0.346410161513776,0.));
#395=CARTESIAN_POINT('',(-1.585,-2.74530052999667,0.));
#396=CARTESIAN_POINT('',(-1.585,-2.74530052999667,-1.98));
#397=CARTESIAN_POINT('',(-1.585,-2.74530052999667,0.));
#398=CARTESIAN_POINT('',(-1.72173637290307,2.98213487510748,-1.98));
#399=CARTESIAN_POINT('',(-1.787,3.09517479312558,-1.98));
#400=CARTESIAN_POINT('',(-1.787,3.09517479312558,0.));
#401=CARTESIAN_POINT('',(-1.95754998194614,3.39057602708626,-0.0594522755222479));
#402=MECHANICAL_DESIGN_GEOMETRIC_PRESENTATION_REPRESENTATION('',(#192,#193,
#194,#195,#196,#197),#403);
#403=(
GEOMETRIC_REPRESENTATION_CONTEXT(3)
GLOBAL_UNCERTAINTY_ASSIGNED_CONTEXT((#404))
GLOBAL_UNIT_ASSIGNED_CONTEXT((#410,#406,#405))
REPRESENTATION_CONTEXT('aaa339331_a','TOP_LEVEL_ASSEMBLY_PART')
);
#404=UNCERTAINTY_MEASURE_WITH_UNIT(LENGTH_MEASURE(0.0508),#410,
'DISTANCE_ACCURACY_VALUE','Maximum Tolerance applied to model');
#405=(
NAMED_UNIT(*)
SI_UNIT($,.STERADIAN.)
SOLID_ANGLE_UNIT()
);
#406=(
CONVERSION_BASED_UNIT('DEGREE',#408)
NAMED_UNIT(#407)
PLANE_ANGLE_UNIT()
);
#407=DIMENSIONAL_EXPONENTS(0.,0.,0.,0.,0.,0.,0.);
#408=PLANE_ANGLE_MEASURE_WITH_UNIT(PLANE_ANGLE_MEASURE(0.0174532925),#409);
#409=(
NAMED_UNIT(*)
PLANE_ANGLE_UNIT()
SI_UNIT($,.RADIAN.)
);
#410=(
LENGTH_UNIT()
NAMED_UNIT(*)
SI_UNIT(.MILLI.,.METRE.)
);
ENDSEC;
END-ISO-10303-21;
