ISO-10303-21;
HEADER;
/* Generated by software containing ST-Developer
 * from STEP Tools, Inc. (www.steptools.com) 
 */
/* OPTION: using custom schema-name function */

FILE_DESCRIPTION(
/* description */ (''),
/* implementation_level */ '2;1');

FILE_NAME(
/* name */ 'aaa338092_a.stp',
/* time_stamp */ '2019-09-20T10:31:58+02:00',
/* author */ (''),
/* organization */ ('SMS'),
/* preprocessor_version */ 'ST-DEVELOPER v16.7',
/* originating_system */ 'SIEMENS PLM Software NX 12.0',
/* authorisation */ '');

FILE_SCHEMA (('AUTOMOTIVE_DESIGN { 1 0 10303 214 3 1 1 1 }'));
ENDSEC;

DATA;
#10=CONSTRUCTIVE_GEOMETRY_REPRESENTATION_RELATIONSHIP(
'supplemental geometry','',#26,#11);
#11=CONSTRUCTIVE_GEOMETRY_REPRESENTATION('supplemental geometry',(#339,
#340),#619);
#12=GEOMETRICALLY_BOUNDED_WIREFRAME_SHAPE_REPRESENTATION(
'AAA338092_A-None',(#27),#619);
#13=SHAPE_REPRESENTATION_RELATIONSHIP('None',
'relationship between AAA338092_A-None and AAA338092_A-None',#26,#15);
#14=SHAPE_REPRESENTATION_RELATIONSHIP('None',
'relationship between AAA338092_A-None and AAA338092_A-None',#26,#12);
#15=ADVANCED_BREP_SHAPE_REPRESENTATION('AAA338092_A-None',(#33),#619);
#16=SHAPE_DEFINITION_REPRESENTATION(#17,#26);
#17=PRODUCT_DEFINITION_SHAPE('','',#18);
#18=PRODUCT_DEFINITION(' ','',#20,#19);
#19=PRODUCT_DEFINITION_CONTEXT('part definition',#25,'design');
#20=PRODUCT_DEFINITION_FORMATION_WITH_SPECIFIED_SOURCE(' ',' ',#22,
 .NOT_KNOWN.);
#21=PRODUCT_RELATED_PRODUCT_CATEGORY('part','',(#22));
#22=PRODUCT('AAA338092_A','AAA338092_A','MASTER_INSERT',(#23));
#23=PRODUCT_CONTEXT(' ',#25,'mechanical');
#24=APPLICATION_PROTOCOL_DEFINITION('international standard',
'automotive_design',2010,#25);
#25=APPLICATION_CONTEXT(
'core data for automotive mechanical design processes');
#26=SHAPE_REPRESENTATION('AAA338092_A-None',(#338),#619);
#27=GEOMETRIC_CURVE_SET('None',(#475,#476,#318));
#28=SURFACE_STYLE_USAGE(.BOTH.,#29);
#29=SURFACE_SIDE_STYLE('',(#30));
#30=SURFACE_STYLE_FILL_AREA(#31);
#31=FILL_AREA_STYLE('',(#32));
#32=FILL_AREA_STYLE_COLOUR('',#337);
#33=MANIFOLD_SOLID_BREP('',#34);
#34=CLOSED_SHELL('',(#86,#87,#88,#89,#90,#91,#92,#93,#94,#95,#96,#97,#98,
#99,#100,#101,#102,#103,#104));
#35=CONICAL_SURFACE('',#364,3.15943779015198,3.99999999999999);
#36=CONICAL_SURFACE('',#365,2.45649784540567,11.0000000000001);
#37=CONICAL_SURFACE('',#374,3.15943779015198,3.99999999999999);
#38=CONICAL_SURFACE('',#375,2.45649784540567,11.0000000000001);
#39=TOROIDAL_SURFACE('',#362,4.20219489408998,1.75);
#40=TOROIDAL_SURFACE('',#372,4.20219489408998,1.75);
#41=FACE_BOUND('',#129,.T.);
#42=FACE_BOUND('',#130,.T.);
#43=FACE_BOUND('',#131,.T.);
#44=FACE_BOUND('',#132,.T.);
#45=FACE_BOUND('',#133,.T.);
#46=FACE_BOUND('',#134,.T.);
#47=FACE_BOUND('',#135,.T.);
#48=FACE_BOUND('',#136,.T.);
#49=FACE_BOUND('',#137,.T.);
#50=FACE_BOUND('',#138,.T.);
#51=FACE_BOUND('',#139,.T.);
#52=FACE_BOUND('',#140,.T.);
#53=FACE_BOUND('',#141,.T.);
#54=FACE_BOUND('',#142,.T.);
#55=FACE_BOUND('',#143,.T.);
#56=FACE_BOUND('',#144,.T.);
#57=FACE_BOUND('',#145,.T.);
#58=FACE_BOUND('',#146,.T.);
#59=FACE_BOUND('',#147,.T.);
#60=FACE_BOUND('',#148,.T.);
#61=FACE_BOUND('',#149,.T.);
#62=FACE_BOUND('',#150,.T.);
#63=CYLINDRICAL_SURFACE('',#344,1.5875);
#64=CYLINDRICAL_SURFACE('',#347,1.5875);
#65=CYLINDRICAL_SURFACE('',#351,1.5875);
#66=CYLINDRICAL_SURFACE('',#355,1.5875);
#67=CYLINDRICAL_SURFACE('',#367,2.3);
#68=CIRCLE('',#342,1.5875);
#69=CIRCLE('',#343,1.5875);
#70=CIRCLE('',#345,1.5875);
#71=CIRCLE('',#346,1.5875);
#72=CIRCLE('',#349,1.5875);
#73=CIRCLE('',#350,1.5875);
#74=CIRCLE('',#353,1.5875);
#75=CIRCLE('',#354,1.5875);
#76=CIRCLE('',#357,2.4436);
#77=CIRCLE('',#358,2.3);
#78=CIRCLE('',#360,2.48434732305657);
#79=CIRCLE('',#361,3.1);
#80=CIRCLE('',#363,3.15593966677074);
#81=CIRCLE('',#366,2.3);
#82=CIRCLE('',#368,2.4436);
#83=CIRCLE('',#370,2.48434732305657);
#84=CIRCLE('',#371,3.1);
#85=CIRCLE('',#373,3.16223307984565);
#86=ADVANCED_FACE('',(#113),#105,.T.);
#87=ADVANCED_FACE('',(#114),#63,.T.);
#88=ADVANCED_FACE('',(#115),#64,.T.);
#89=ADVANCED_FACE('',(#116),#106,.T.);
#90=ADVANCED_FACE('',(#117),#65,.T.);
#91=ADVANCED_FACE('',(#118),#107,.T.);
#92=ADVANCED_FACE('',(#119),#66,.T.);
#93=ADVANCED_FACE('',(#120),#108,.T.);
#94=ADVANCED_FACE('',(#41,#42),#109,.F.);
#95=ADVANCED_FACE('',(#43,#44),#39,.T.);
#96=ADVANCED_FACE('',(#45,#46),#35,.F.);
#97=ADVANCED_FACE('',(#47,#48),#36,.F.);
#98=ADVANCED_FACE('',(#49,#50),#67,.F.);
#99=ADVANCED_FACE('',(#51,#52),#110,.F.);
#100=ADVANCED_FACE('',(#53,#54),#40,.T.);
#101=ADVANCED_FACE('',(#55,#56),#37,.F.);
#102=ADVANCED_FACE('',(#57,#58),#38,.F.);
#103=ADVANCED_FACE('',(#59,#60),#111,.F.);
#104=ADVANCED_FACE('',(#61,#62),#112,.F.);
#105=PLANE('',#341);
#106=PLANE('',#348);
#107=PLANE('',#352);
#108=PLANE('',#356);
#109=PLANE('',#359);
#110=PLANE('',#369);
#111=PLANE('',#376);
#112=PLANE('',#377);
#113=FACE_OUTER_BOUND('',#121,.T.);
#114=FACE_OUTER_BOUND('',#122,.T.);
#115=FACE_OUTER_BOUND('',#123,.T.);
#116=FACE_OUTER_BOUND('',#124,.T.);
#117=FACE_OUTER_BOUND('',#125,.T.);
#118=FACE_OUTER_BOUND('',#126,.T.);
#119=FACE_OUTER_BOUND('',#127,.T.);
#120=FACE_OUTER_BOUND('',#128,.T.);
#121=EDGE_LOOP('',(#151,#152,#153,#154));
#122=EDGE_LOOP('',(#155,#156,#157,#158));
#123=EDGE_LOOP('',(#159,#160,#161,#162));
#124=EDGE_LOOP('',(#163,#164,#165,#166));
#125=EDGE_LOOP('',(#167,#168,#169,#170));
#126=EDGE_LOOP('',(#171,#172,#173,#174));
#127=EDGE_LOOP('',(#175,#176,#177,#178));
#128=EDGE_LOOP('',(#179,#180,#181,#182));
#129=EDGE_LOOP('',(#183));
#130=EDGE_LOOP('',(#184));
#131=EDGE_LOOP('',(#185));
#132=EDGE_LOOP('',(#186));
#133=EDGE_LOOP('',(#187));
#134=EDGE_LOOP('',(#188));
#135=EDGE_LOOP('',(#189));
#136=EDGE_LOOP('',(#190));
#137=EDGE_LOOP('',(#191));
#138=EDGE_LOOP('',(#192));
#139=EDGE_LOOP('',(#193));
#140=EDGE_LOOP('',(#194));
#141=EDGE_LOOP('',(#195));
#142=EDGE_LOOP('',(#196));
#143=EDGE_LOOP('',(#197));
#144=EDGE_LOOP('',(#198));
#145=EDGE_LOOP('',(#199));
#146=EDGE_LOOP('',(#200));
#147=EDGE_LOOP('',(#201,#202,#203,#204,#205,#206,#207,#208));
#148=EDGE_LOOP('',(#209));
#149=EDGE_LOOP('',(#210,#211,#212,#213,#214,#215,#216,#217));
#150=EDGE_LOOP('',(#218));
#151=ORIENTED_EDGE('',*,*,#245,.F.);
#152=ORIENTED_EDGE('',*,*,#246,.F.);
#153=ORIENTED_EDGE('',*,*,#247,.F.);
#154=ORIENTED_EDGE('',*,*,#248,.T.);
#155=ORIENTED_EDGE('',*,*,#246,.T.);
#156=ORIENTED_EDGE('',*,*,#249,.T.);
#157=ORIENTED_EDGE('',*,*,#250,.F.);
#158=ORIENTED_EDGE('',*,*,#251,.T.);
#159=ORIENTED_EDGE('',*,*,#252,.F.);
#160=ORIENTED_EDGE('',*,*,#248,.F.);
#161=ORIENTED_EDGE('',*,*,#253,.F.);
#162=ORIENTED_EDGE('',*,*,#254,.T.);
#163=ORIENTED_EDGE('',*,*,#255,.F.);
#164=ORIENTED_EDGE('',*,*,#254,.F.);
#165=ORIENTED_EDGE('',*,*,#256,.F.);
#166=ORIENTED_EDGE('',*,*,#257,.F.);
#167=ORIENTED_EDGE('',*,*,#258,.T.);
#168=ORIENTED_EDGE('',*,*,#259,.T.);
#169=ORIENTED_EDGE('',*,*,#257,.T.);
#170=ORIENTED_EDGE('',*,*,#260,.T.);
#171=ORIENTED_EDGE('',*,*,#261,.F.);
#172=ORIENTED_EDGE('',*,*,#258,.F.);
#173=ORIENTED_EDGE('',*,*,#262,.F.);
#174=ORIENTED_EDGE('',*,*,#263,.T.);
#175=ORIENTED_EDGE('',*,*,#264,.F.);
#176=ORIENTED_EDGE('',*,*,#263,.F.);
#177=ORIENTED_EDGE('',*,*,#265,.F.);
#178=ORIENTED_EDGE('',*,*,#266,.T.);
#179=ORIENTED_EDGE('',*,*,#267,.F.);
#180=ORIENTED_EDGE('',*,*,#266,.F.);
#181=ORIENTED_EDGE('',*,*,#268,.F.);
#182=ORIENTED_EDGE('',*,*,#250,.T.);
#183=ORIENTED_EDGE('',*,*,#269,.F.);
#184=ORIENTED_EDGE('',*,*,#270,.T.);
#185=ORIENTED_EDGE('',*,*,#271,.T.);
#186=ORIENTED_EDGE('',*,*,#272,.F.);
#187=ORIENTED_EDGE('',*,*,#273,.T.);
#188=ORIENTED_EDGE('',*,*,#272,.T.);
#189=ORIENTED_EDGE('',*,*,#271,.F.);
#190=ORIENTED_EDGE('',*,*,#269,.T.);
#191=ORIENTED_EDGE('',*,*,#274,.T.);
#192=ORIENTED_EDGE('',*,*,#270,.F.);
#193=ORIENTED_EDGE('',*,*,#275,.F.);
#194=ORIENTED_EDGE('',*,*,#274,.F.);
#195=ORIENTED_EDGE('',*,*,#276,.T.);
#196=ORIENTED_EDGE('',*,*,#277,.F.);
#197=ORIENTED_EDGE('',*,*,#278,.T.);
#198=ORIENTED_EDGE('',*,*,#277,.T.);
#199=ORIENTED_EDGE('',*,*,#276,.F.);
#200=ORIENTED_EDGE('',*,*,#275,.T.);
#201=ORIENTED_EDGE('',*,*,#247,.T.);
#202=ORIENTED_EDGE('',*,*,#251,.F.);
#203=ORIENTED_EDGE('',*,*,#268,.T.);
#204=ORIENTED_EDGE('',*,*,#265,.T.);
#205=ORIENTED_EDGE('',*,*,#262,.T.);
#206=ORIENTED_EDGE('',*,*,#260,.F.);
#207=ORIENTED_EDGE('',*,*,#256,.T.);
#208=ORIENTED_EDGE('',*,*,#253,.T.);
#209=ORIENTED_EDGE('',*,*,#273,.F.);
#210=ORIENTED_EDGE('',*,*,#245,.T.);
#211=ORIENTED_EDGE('',*,*,#252,.T.);
#212=ORIENTED_EDGE('',*,*,#255,.T.);
#213=ORIENTED_EDGE('',*,*,#259,.F.);
#214=ORIENTED_EDGE('',*,*,#261,.T.);
#215=ORIENTED_EDGE('',*,*,#264,.T.);
#216=ORIENTED_EDGE('',*,*,#267,.T.);
#217=ORIENTED_EDGE('',*,*,#249,.F.);
#218=ORIENTED_EDGE('',*,*,#278,.F.);
#219=VERTEX_POINT('',#540);
#220=VERTEX_POINT('',#541);
#221=VERTEX_POINT('',#543);
#222=VERTEX_POINT('',#545);
#223=VERTEX_POINT('',#549);
#224=VERTEX_POINT('',#551);
#225=VERTEX_POINT('',#555);
#226=VERTEX_POINT('',#557);
#227=VERTEX_POINT('',#561);
#228=VERTEX_POINT('',#563);
#229=VERTEX_POINT('',#567);
#230=VERTEX_POINT('',#568);
#231=VERTEX_POINT('',#573);
#232=VERTEX_POINT('',#575);
#233=VERTEX_POINT('',#579);
#234=VERTEX_POINT('',#581);
#235=VERTEX_POINT('',#588);
#236=VERTEX_POINT('',#590);
#237=VERTEX_POINT('',#593);
#238=VERTEX_POINT('',#595);
#239=VERTEX_POINT('',#598);
#240=VERTEX_POINT('',#602);
#241=VERTEX_POINT('',#605);
#242=VERTEX_POINT('',#608);
#243=VERTEX_POINT('',#610);
#244=VERTEX_POINT('',#613);
#245=EDGE_CURVE('',#219,#220,#279,.T.);
#246=EDGE_CURVE('',#221,#219,#280,.T.);
#247=EDGE_CURVE('',#222,#221,#281,.T.);
#248=EDGE_CURVE('',#222,#220,#282,.T.);
#249=EDGE_CURVE('',#219,#223,#68,.T.);
#250=EDGE_CURVE('',#224,#223,#283,.T.);
#251=EDGE_CURVE('',#224,#221,#69,.T.);
#252=EDGE_CURVE('',#220,#225,#70,.T.);
#253=EDGE_CURVE('',#226,#222,#71,.T.);
#254=EDGE_CURVE('',#226,#225,#284,.T.);
#255=EDGE_CURVE('',#225,#227,#285,.T.);
#256=EDGE_CURVE('',#228,#226,#286,.T.);
#257=EDGE_CURVE('',#227,#228,#287,.T.);
#258=EDGE_CURVE('',#229,#230,#288,.T.);
#259=EDGE_CURVE('',#230,#227,#72,.T.);
#260=EDGE_CURVE('',#228,#229,#73,.T.);
#261=EDGE_CURVE('',#230,#231,#289,.T.);
#262=EDGE_CURVE('',#232,#229,#290,.T.);
#263=EDGE_CURVE('',#232,#231,#291,.T.);
#264=EDGE_CURVE('',#231,#233,#74,.T.);
#265=EDGE_CURVE('',#234,#232,#75,.T.);
#266=EDGE_CURVE('',#234,#233,#292,.T.);
#267=EDGE_CURVE('',#233,#223,#293,.T.);
#268=EDGE_CURVE('',#224,#234,#294,.T.);
#269=EDGE_CURVE('',#235,#235,#76,.T.);
#270=EDGE_CURVE('',#236,#236,#77,.T.);
#271=EDGE_CURVE('',#237,#237,#78,.T.);
#272=EDGE_CURVE('',#238,#238,#79,.T.);
#273=EDGE_CURVE('',#239,#239,#80,.T.);
#274=EDGE_CURVE('',#240,#240,#81,.T.);
#275=EDGE_CURVE('',#241,#241,#82,.T.);
#276=EDGE_CURVE('',#242,#242,#83,.T.);
#277=EDGE_CURVE('',#243,#243,#84,.T.);
#278=EDGE_CURVE('',#244,#244,#85,.T.);
#279=LINE('',#539,#295);
#280=LINE('',#542,#296);
#281=LINE('',#544,#297);
#282=LINE('',#546,#298);
#283=LINE('',#550,#299);
#284=LINE('',#558,#300);
#285=LINE('',#560,#301);
#286=LINE('',#562,#302);
#287=LINE('',#564,#303);
#288=LINE('',#566,#304);
#289=LINE('',#572,#305);
#290=LINE('',#574,#306);
#291=LINE('',#576,#307);
#292=LINE('',#582,#308);
#293=LINE('',#584,#309);
#294=LINE('',#585,#310);
#295=VECTOR('',#384,1.);
#296=VECTOR('',#385,1.);
#297=VECTOR('',#386,1.);
#298=VECTOR('',#387,1.);
#299=VECTOR('',#392,1.);
#300=VECTOR('',#401,1.);
#301=VECTOR('',#404,1.);
#302=VECTOR('',#405,1.);
#303=VECTOR('',#406,1.);
#304=VECTOR('',#409,1.);
#305=VECTOR('',#416,1.);
#306=VECTOR('',#417,1.);
#307=VECTOR('',#418,1.);
#308=VECTOR('',#425,1.);
#309=VECTOR('',#428,1.);
#310=VECTOR('',#429,1.);
#311=CURVE_STYLE('',#315,POSITIVE_LENGTH_MEASURE(0.18),#314);
#312=CURVE_STYLE('',#316,POSITIVE_LENGTH_MEASURE(0.18),#336);
#313=CURVE_STYLE('',#317,POSITIVE_LENGTH_MEASURE(0.18),#336);
#314=DRAUGHTING_PRE_DEFINED_COLOUR('blue');
#315=DRAUGHTING_PRE_DEFINED_CURVE_FONT('continuous');
#316=DRAUGHTING_PRE_DEFINED_CURVE_FONT('continuous');
#317=DRAUGHTING_PRE_DEFINED_CURVE_FONT('continuous');
#318=B_SPLINE_CURVE_WITH_KNOTS('CUTTING EDGE LINE',3,(#477,#478,#479,#480,
#481,#482,#483,#484,#485,#486,#487,#488,#489,#490,#491,#492,#493,#494,#495,
#496,#497,#498,#499,#500,#501,#502,#503,#504,#505,#506,#507,#508,#509,#510,
#511,#512,#513,#514,#515,#516,#517,#518,#519,#520,#521,#522,#523,#524,#525,
#526,#527,#528,#529,#530,#531,#532,#533,#534,#535,#536),.UNSPECIFIED.,.T.,
 .F.,(1,1,2,1,1,1,1,1,1,1,1,1,1,1,1,1,1,1,1,1,1,1,1,1,1,1,1,1,1,1,1,1,1,
1,1,1,1,1,1,1,1,1,1,1,1,1,1,1,1,1,1,1,1,1,1,1,1,1,1,2,1,1),(-0.196892912434687,
-0.09937812615,0.,0.00569374975,0.0113874995,0.01708124925,0.022774999,
0.02846874875,0.0341624985,0.03985624825,0.042703123125,0.045549998,0.04679222457625,
0.1449281241,0.19461718715,0.242442910335625,0.2443062502,0.24786484379375,
0.2514234373875,0.258540624575,0.2656578117625,0.27277499895,0.2798921861375,
0.287009373325,0.2941265605125,0.29768515410625,0.3012437477,0.303107087565313,
0.40062187385,0.450310936925,0.498447216778906,0.5,0.502846874875,0.50569374975,
0.5113874995,0.51708124925,0.522774999,0.52846874875,0.5341624985,0.53985624825,
0.542703123125,0.545549998,0.54679222457625,0.6449281241,0.69461718715,
0.742442910335625,0.7443062502,0.74786484379375,0.7514234373875,0.758540624575,
0.7656578117625,0.77277499895,0.7798921861375,0.787009373325,0.7941265605125,
0.79768515410625,0.8012437477,0.803107087565313,0.90062187385,1.,1.00569374975,
1.0113874995),.UNSPECIFIED.);
#319=PRESENTATION_LAYER_ASSIGNMENT('1','Layer 1',(#475,#476,#318,#339,#340,
#33));
#320=STYLED_ITEM('',(#326),#475);
#321=STYLED_ITEM('',(#327),#476);
#322=STYLED_ITEM('',(#328),#318);
#323=STYLED_ITEM('',(#329),#339);
#324=STYLED_ITEM('',(#330),#340);
#325=STYLED_ITEM('',(#331),#33);
#326=PRESENTATION_STYLE_ASSIGNMENT((#332));
#327=PRESENTATION_STYLE_ASSIGNMENT((#333));
#328=PRESENTATION_STYLE_ASSIGNMENT((#311));
#329=PRESENTATION_STYLE_ASSIGNMENT((#312));
#330=PRESENTATION_STYLE_ASSIGNMENT((#313));
#331=PRESENTATION_STYLE_ASSIGNMENT((#28));
#332=POINT_STYLE('',#334,POSITIVE_LENGTH_MEASURE(3.),#336);
#333=POINT_STYLE('',#335,POSITIVE_LENGTH_MEASURE(3.),#336);
#334=PRE_DEFINED_POINT_MARKER_SYMBOL('plus');
#335=PRE_DEFINED_POINT_MARKER_SYMBOL('plus');
#336=COLOUR_RGB('Medium Weak Red',0.6,0.4,0.4);
#337=COLOUR_RGB('Pale Gray',0.8,0.8,0.8);
#338=AXIS2_PLACEMENT_3D('',#474,#378,#379);
#339=AXIS2_PLACEMENT_3D('MCS',#537,#380,#381);
#340=AXIS2_PLACEMENT_3D('PCS',#538,#382,#383);
#341=AXIS2_PLACEMENT_3D('',#547,#388,#389);
#342=AXIS2_PLACEMENT_3D('',#548,#390,#391);
#343=AXIS2_PLACEMENT_3D('',#552,#393,#394);
#344=AXIS2_PLACEMENT_3D('',#553,#395,#396);
#345=AXIS2_PLACEMENT_3D('',#554,#397,#398);
#346=AXIS2_PLACEMENT_3D('',#556,#399,#400);
#347=AXIS2_PLACEMENT_3D('',#559,#402,#403);
#348=AXIS2_PLACEMENT_3D('',#565,#407,#408);
#349=AXIS2_PLACEMENT_3D('',#569,#410,#411);
#350=AXIS2_PLACEMENT_3D('',#570,#412,#413);
#351=AXIS2_PLACEMENT_3D('',#571,#414,#415);
#352=AXIS2_PLACEMENT_3D('',#577,#419,#420);
#353=AXIS2_PLACEMENT_3D('',#578,#421,#422);
#354=AXIS2_PLACEMENT_3D('',#580,#423,#424);
#355=AXIS2_PLACEMENT_3D('',#583,#426,#427);
#356=AXIS2_PLACEMENT_3D('',#586,#430,#431);
#357=AXIS2_PLACEMENT_3D('',#587,#432,#433);
#358=AXIS2_PLACEMENT_3D('',#589,#434,#435);
#359=AXIS2_PLACEMENT_3D('',#591,#436,#437);
#360=AXIS2_PLACEMENT_3D('',#592,#438,#439);
#361=AXIS2_PLACEMENT_3D('',#594,#440,#441);
#362=AXIS2_PLACEMENT_3D('',#596,#442,#443);
#363=AXIS2_PLACEMENT_3D('',#597,#444,#445);
#364=AXIS2_PLACEMENT_3D('',#599,#446,#447);
#365=AXIS2_PLACEMENT_3D('',#600,#448,#449);
#366=AXIS2_PLACEMENT_3D('',#601,#450,#451);
#367=AXIS2_PLACEMENT_3D('',#603,#452,#453);
#368=AXIS2_PLACEMENT_3D('',#604,#454,#455);
#369=AXIS2_PLACEMENT_3D('',#606,#456,#457);
#370=AXIS2_PLACEMENT_3D('',#607,#458,#459);
#371=AXIS2_PLACEMENT_3D('',#609,#460,#461);
#372=AXIS2_PLACEMENT_3D('',#611,#462,#463);
#373=AXIS2_PLACEMENT_3D('',#612,#464,#465);
#374=AXIS2_PLACEMENT_3D('',#614,#466,#467);
#375=AXIS2_PLACEMENT_3D('',#615,#468,#469);
#376=AXIS2_PLACEMENT_3D('',#616,#470,#471);
#377=AXIS2_PLACEMENT_3D('',#617,#472,#473);
#378=DIRECTION('',(0.,0.,1.));
#379=DIRECTION('',(1.,0.,0.));
#380=DIRECTION('',(0.,0.,1.));
#381=DIRECTION('',(0.,-1.,0.));
#382=DIRECTION('',(0.,0.,1.));
#383=DIRECTION('',(0.,-1.,0.));
#384=DIRECTION('',(0.,1.,0.));
#385=DIRECTION('',(0.,0.,-1.));
#386=DIRECTION('',(0.,-1.,0.));
#387=DIRECTION('',(9.91270557701033E-17,0.,-1.));
#388=DIRECTION('',(-1.,0.,0.));
#389=DIRECTION('',(0.,0.,1.));
#390=DIRECTION('',(0.,0.,1.));
#391=DIRECTION('',(1.,0.,0.));
#392=DIRECTION('',(0.,0.,-1.));
#393=DIRECTION('',(0.,0.,-1.));
#394=DIRECTION('',(-1.,0.,0.));
#395=DIRECTION('',(0.,0.,-1.));
#396=DIRECTION('',(-1.,0.,0.));
#397=DIRECTION('',(0.,0.,-1.));
#398=DIRECTION('',(1.,0.,0.));
#399=DIRECTION('',(0.,0.,1.));
#400=DIRECTION('',(-1.,0.,0.));
#401=DIRECTION('',(-1.72132325919666E-17,-9.76210930556712E-17,-1.));
#402=DIRECTION('',(0.,0.,1.));
#403=DIRECTION('',(1.,0.,0.));
#404=DIRECTION('',(0.984807753012208,-0.17364817766693,0.));
#405=DIRECTION('',(-0.984807753012208,0.17364817766693,0.));
#406=DIRECTION('',(0.,0.,1.));
#407=DIRECTION('',(0.17364817766693,0.984807753012208,0.));
#408=DIRECTION('',(0.,0.,1.));
#409=DIRECTION('',(0.,0.,-1.));
#410=DIRECTION('',(0.,0.,1.));
#411=DIRECTION('',(1.,0.,0.));
#412=DIRECTION('',(0.,0.,-1.));
#413=DIRECTION('',(-1.,0.,0.));
#414=DIRECTION('',(0.,0.,-1.));
#415=DIRECTION('',(0.17364817766693,0.984807753012208,0.));
#416=DIRECTION('',(-2.34291072916505E-15,-1.,0.));
#417=DIRECTION('',(2.34291072916505E-15,1.,0.));
#418=DIRECTION('',(-9.91270557701033E-17,2.32245842514317E-31,-1.));
#419=DIRECTION('',(1.,-2.34291072916505E-15,0.));
#420=DIRECTION('',(0.,0.,1.));
#421=DIRECTION('',(0.,0.,-1.));
#422=DIRECTION('',(1.,0.,0.));
#423=DIRECTION('',(0.,0.,1.));
#424=DIRECTION('',(-1.,0.,0.));
#425=DIRECTION('',(1.72132325919668E-17,9.76210930556712E-17,-1.));
#426=DIRECTION('',(0.,0.,1.));
#427=DIRECTION('',(-1.,2.18547839493141E-15,0.));
#428=DIRECTION('',(-0.984807753012208,0.173648177666933,0.));
#429=DIRECTION('',(0.984807753012208,-0.173648177666933,0.));
#430=DIRECTION('',(-0.173648177666933,-0.984807753012208,0.));
#431=DIRECTION('',(0.,0.,1.));
#432=DIRECTION('',(0.,0.,-1.));
#433=DIRECTION('',(-1.,0.,0.));
#434=DIRECTION('',(0.,0.,-1.));
#435=DIRECTION('',(-1.,0.,0.));
#436=DIRECTION('',(0.,0.,-1.));
#437=DIRECTION('',(-1.,0.,0.));
#438=DIRECTION('',(0.,0.,-1.));
#439=DIRECTION('',(1.,0.,0.));
#440=DIRECTION('',(0.,0.,-1.));
#441=DIRECTION('',(-1.,0.,0.));
#442=DIRECTION('',(0.,0.,1.));
#443=DIRECTION('',(1.,0.,0.));
#444=DIRECTION('',(0.,0.,1.));
#445=DIRECTION('',(-1.,0.,0.));
#446=DIRECTION('',(0.,0.,1.));
#447=DIRECTION('',(1.,0.,-7.26893316395202E-17));
#448=DIRECTION('',(0.,0.,1.));
#449=DIRECTION('',(1.,0.,1.93886077794187E-16));
#450=DIRECTION('',(0.,0.,-1.));
#451=DIRECTION('',(-0.923728021347068,-0.383049008063238,0.));
#452=DIRECTION('',(0.,0.,-1.));
#453=DIRECTION('',(-1.,0.,0.));
#454=DIRECTION('',(0.,0.,1.));
#455=DIRECTION('',(1.,0.,0.));
#456=DIRECTION('',(0.,0.,1.));
#457=DIRECTION('',(-0.923728021347068,-0.383049008063238,0.));
#458=DIRECTION('',(0.,0.,1.));
#459=DIRECTION('',(0.923728021347068,0.383049008063238,0.));
#460=DIRECTION('',(0.,0.,1.));
#461=DIRECTION('',(1.,0.,0.));
#462=DIRECTION('',(0.,0.,-1.));
#463=DIRECTION('',(0.923728021347068,0.383049008063238,0.));
#464=DIRECTION('',(0.,0.,-1.));
#465=DIRECTION('',(1.,0.,0.));
#466=DIRECTION('',(0.,0.,-1.));
#467=DIRECTION('',(0.923728021347068,0.383049008063238,1.00874990846681E-15));
#468=DIRECTION('',(0.,0.,-1.));
#469=DIRECTION('',(0.923728021347068,0.383049008063238,1.5422756188174E-16));
#470=DIRECTION('',(0.,0.,-1.));
#471=DIRECTION('',(-1.,0.,0.));
#472=DIRECTION('',(0.,0.,1.));
#473=DIRECTION('',(1.,0.,0.));
#474=CARTESIAN_POINT('',(0.,0.,0.));
#475=CARTESIAN_POINT('',(0.,0.,0.));
#476=CARTESIAN_POINT('',(-6.35,7.56763531297323,0.));
#477=CARTESIAN_POINT('',(6.35000000000001,2.38422224711316,0.));
#478=CARTESIAN_POINT('',(6.35,4.08856899973314,0.));
#479=CARTESIAN_POINT('',(6.33383961980549,4.2732815643061,0.));
#480=CARTESIAN_POINT('',(6.26185493051483,4.54193255874856,0.));
#481=CARTESIAN_POINT('',(6.14431287120868,4.79400202652629,0.));
#482=CARTESIAN_POINT('',(5.98478533816018,5.02183116995891,0.));
#483=CARTESIAN_POINT('',(5.78811909685885,5.21849723679311,0.));
#484=CARTESIAN_POINT('',(5.5602900950441,5.37802497188658,0.));
#485=CARTESIAN_POINT('',(5.35023211824162,5.47597650168642,0.));
#486=CARTESIAN_POINT('',(5.17389541410597,5.53155920858036,0.));
#487=CARTESIAN_POINT('',(5.06387624929159,5.55550849587887,0.));
#488=CARTESIAN_POINT('',(3.43082273204625,5.8430123717868,0.));
#489=CARTESIAN_POINT('',(1.04957273204625,6.26289099459883,0.));
#490=CARTESIAN_POINT('',(-2.07581789295375,6.81398168703962,0.));
#491=CARTESIAN_POINT('',(-3.66331789295375,7.09390076891431,0.));
#492=CARTESIAN_POINT('',(-4.51377052080242,7.24469881746234,0.));
#493=CARTESIAN_POINT('',(-4.65846872952344,7.26295348080077,0.));
#494=CARTESIAN_POINT('',(-4.8896889776268,7.26551309633998,0.));
#495=CARTESIAN_POINT('',(-5.17664759087337,7.22134633589516,0.));
#496=CARTESIAN_POINT('',(-5.50136378576891,7.09507061187025,0.));
#497=CARTESIAN_POINT('',(-5.79105236148967,6.90150745663232,0.));
#498=CARTESIAN_POINT('',(-6.0319787505367,6.64983179068827,0.));
#499=CARTESIAN_POINT('',(-6.212722438191,6.35197631370293,0.));
#500=CARTESIAN_POINT('',(-6.30604804660992,6.07704672379129,0.));
#501=CARTESIAN_POINT('',(-6.34367829207342,5.84889475836034,0.));
#502=CARTESIAN_POINT('',(-6.35082753832983,5.70322495158801,0.));
#503=CARTESIAN_POINT('',(-6.35,4.03351193061689,0.));
#504=CARTESIAN_POINT('',(-6.35,1.61552731106396,0.));
#505=CARTESIAN_POINT('',(-6.35,-1.55304003414185,0.));
#506=CARTESIAN_POINT('',(-6.35,-3.16502978051047,0.));
#507=CARTESIAN_POINT('',(-6.35055090160953,-4.01720320616939,0.));
#508=CARTESIAN_POINT('',(-6.34595990495137,-4.13474714087639,0.));
#509=CARTESIAN_POINT('',(-6.32184217159038,-4.31805673004652,0.));
#510=CARTESIAN_POINT('',(-6.26185493051483,-4.54193255874856,0.));
#511=CARTESIAN_POINT('',(-6.14431287120868,-4.79400202652628,0.));
#512=CARTESIAN_POINT('',(-5.98478533816018,-5.0218311699589,0.));
#513=CARTESIAN_POINT('',(-5.78811909685886,-5.2184972367931,0.));
#514=CARTESIAN_POINT('',(-5.56029009504411,-5.37802497188657,0.));
#515=CARTESIAN_POINT('',(-5.35023211824163,-5.47597650168641,0.));
#516=CARTESIAN_POINT('',(-5.17389541410598,-5.53155920858035,0.));
#517=CARTESIAN_POINT('',(-5.0638762492916,-5.55550849587886,0.));
#518=CARTESIAN_POINT('',(-3.43082273204626,-5.84301237178679,0.));
#519=CARTESIAN_POINT('',(-1.04957273204626,-6.26289099459883,0.));
#520=CARTESIAN_POINT('',(2.07581789295373,-6.81398168703963,0.));
#521=CARTESIAN_POINT('',(3.66331789295373,-7.09390076891432,0.));
#522=CARTESIAN_POINT('',(4.51377052080241,-7.24469881746235,0.));
#523=CARTESIAN_POINT('',(4.65846872952343,-7.26295348080078,0.));
#524=CARTESIAN_POINT('',(4.88968897762679,-7.26551309633999,0.));
#525=CARTESIAN_POINT('',(5.17664759087335,-7.22134633589517,0.));
#526=CARTESIAN_POINT('',(5.5013637857689,-7.09507061187026,0.));
#527=CARTESIAN_POINT('',(5.79105236148965,-6.90150745663234,0.));
#528=CARTESIAN_POINT('',(6.03197875053669,-6.64983179068828,0.));
#529=CARTESIAN_POINT('',(6.21272243819098,-6.35197631370294,0.));
#530=CARTESIAN_POINT('',(6.3060480466099,-6.07704672379131,0.));
#531=CARTESIAN_POINT('',(6.34367829207341,-5.84889475836036,0.));
#532=CARTESIAN_POINT('',(6.35082753832982,-5.70322495158803,0.));
#533=CARTESIAN_POINT('',(6.34999999999999,-4.03351193061691,0.));
#534=CARTESIAN_POINT('',(6.35,-0.80953243787967,0.));
#535=CARTESIAN_POINT('',(6.35000000000001,2.38422224711316,0.));
#536=CARTESIAN_POINT('',(6.35,4.08856899973314,0.));
#537=CARTESIAN_POINT('',(0.,0.,0.));
#538=CARTESIAN_POINT('',(-6.35,7.56763531297323,0.));
#539=CARTESIAN_POINT('',(-6.35,-16.,-6.35));
#540=CARTESIAN_POINT('',(-6.35,-3.99621199348179,-6.35));
#541=CARTESIAN_POINT('',(-6.35,5.67572648472992,-6.35));
#542=CARTESIAN_POINT('',(-6.35,-3.99621199348179,18.62));
#543=CARTESIAN_POINT('',(-6.35,-3.99621199348179,0.));
#544=CARTESIAN_POINT('',(-6.35,-16.,0.));
#545=CARTESIAN_POINT('',(-6.35,5.67572648472992,0.));
#546=CARTESIAN_POINT('',(-6.35,5.67572648472992,7.12));
#547=CARTESIAN_POINT('',(-6.35,-16.,0.));
#548=CARTESIAN_POINT('',(-4.7625,-3.99621199348179,-6.35));
#549=CARTESIAN_POINT('',(-5.03816648204626,-5.55959430138867,-6.35));
#550=CARTESIAN_POINT('',(-5.03816648204626,-5.55959430138867,18.62));
#551=CARTESIAN_POINT('',(-5.03816648204626,-5.55959430138867,0.));
#552=CARTESIAN_POINT('',(-4.7625,-3.99621199348179,0.));
#553=CARTESIAN_POINT('',(-4.7625,-3.99621199348179,18.62));
#554=CARTESIAN_POINT('',(-4.7625,5.67572648472992,-6.35));
#555=CARTESIAN_POINT('',(-4.48683351795375,7.2391087926368,-6.35));
#556=CARTESIAN_POINT('',(-4.7625,5.67572648472992,0.));
#557=CARTESIAN_POINT('',(-4.48683351795375,7.2391087926368,0.));
#558=CARTESIAN_POINT('',(-4.48683351795375,7.23910879263681,7.12));
#559=CARTESIAN_POINT('',(-4.7625,5.67572648472992,-17.325));
#560=CARTESIAN_POINT('',(16.8595899763803,3.47515838895664,-6.35));
#561=CARTESIAN_POINT('',(5.03816648204625,5.55959430138868,-6.35));
#562=CARTESIAN_POINT('',(16.8595899763803,3.47515838895664,0.));
#563=CARTESIAN_POINT('',(5.03816648204625,5.55959430138868,0.));
#564=CARTESIAN_POINT('',(5.03816648204625,5.55959430138868,18.62));
#565=CARTESIAN_POINT('',(16.8595899763803,3.47515838895664,0.));
#566=CARTESIAN_POINT('',(6.35000000000001,3.99621199348178,18.62));
#567=CARTESIAN_POINT('',(6.35000000000001,3.99621199348178,0.));
#568=CARTESIAN_POINT('',(6.35000000000001,3.99621199348178,-6.35));
#569=CARTESIAN_POINT('',(4.76249999999999,3.9962119934818,-6.35));
#570=CARTESIAN_POINT('',(4.76249999999999,3.9962119934818,0.));
#571=CARTESIAN_POINT('',(4.76249999999999,3.9962119934818,18.62));
#572=CARTESIAN_POINT('',(6.35000000000004,16.,-6.35));
#573=CARTESIAN_POINT('',(6.34999999999999,-5.67572648472994,-6.35));
#574=CARTESIAN_POINT('',(6.35000000000004,16.,0.));
#575=CARTESIAN_POINT('',(6.34999999999999,-5.67572648472994,0.));
#576=CARTESIAN_POINT('',(6.34999999999999,-5.67572648472994,7.12));
#577=CARTESIAN_POINT('',(6.35000000000004,16.,0.));
#578=CARTESIAN_POINT('',(4.76249999999999,-5.67572648472993,-6.35));
#579=CARTESIAN_POINT('',(4.48683351795373,-7.23910879263681,-6.35));
#580=CARTESIAN_POINT('',(4.76249999999999,-5.67572648472993,0.));
#581=CARTESIAN_POINT('',(4.48683351795373,-7.23910879263682,0.));
#582=CARTESIAN_POINT('',(4.48683351795373,-7.23910879263682,7.12));
#583=CARTESIAN_POINT('',(4.76249999999999,-5.67572648472993,-17.325));
#584=CARTESIAN_POINT('',(-16.8595899763803,-3.4751583889566,-6.35));
#585=CARTESIAN_POINT('',(-16.8595899763803,-3.4751583889566,0.));
#586=CARTESIAN_POINT('',(-16.8595899763803,-3.4751583889566,0.));
#587=CARTESIAN_POINT('',(0.,0.,-2.034974505));
#588=CARTESIAN_POINT('',(-2.4436,0.,-2.034974505));
#589=CARTESIAN_POINT('',(0.,0.,-2.034974505));
#590=CARTESIAN_POINT('',(-2.3,0.,-2.034974505));
#591=CARTESIAN_POINT('',(2.37600441636296,0.,-2.034974505));
#592=CARTESIAN_POINT('',(0.,0.,-1.82534770052928));
#593=CARTESIAN_POINT('',(2.48434732305657,0.,-1.82534770052928));
#594=CARTESIAN_POINT('',(0.,0.,-0.799974504999991));
#595=CARTESIAN_POINT('',(-3.1,0.,-0.799974504999991));
#596=CARTESIAN_POINT('',(0.,0.,-2.15926344243824));
#597=CARTESIAN_POINT('',(0.,0.,0.));
#598=CARTESIAN_POINT('',(-3.15593966677074,0.,0.));
#599=CARTESIAN_POINT('',(0.,0.,0.0500254949999999));
#600=CARTESIAN_POINT('',(0.,0.,-1.96862084262088));
#601=CARTESIAN_POINT('',(0.,0.,-4.225025495));
#602=CARTESIAN_POINT('',(-2.12457444909826,-0.881012718545447,-4.225025495));
#603=CARTESIAN_POINT('',(0.,0.,-5.799974505));
#604=CARTESIAN_POINT('',(0.,0.,-4.225025495));
#605=CARTESIAN_POINT('',(2.4436,0.,-4.225025495));
#606=CARTESIAN_POINT('',(2.19478185823886,0.910126134841706,-4.225025495));
#607=CARTESIAN_POINT('',(0.,0.,-4.43465229947072));
#608=CARTESIAN_POINT('',(2.29486123706593,0.951626777781379,-4.43465229947072));
#609=CARTESIAN_POINT('',(0.,0.,-5.46002549500001));
#610=CARTESIAN_POINT('',(3.1,0.,-5.46002549500001));
#611=CARTESIAN_POINT('',(0.,0.,-4.10073655756176));
#612=CARTESIAN_POINT('',(0.,0.,-6.35));
#613=CARTESIAN_POINT('',(3.16223307984565,0.,-6.35));
#614=CARTESIAN_POINT('',(0.,0.,-6.310025495));
#615=CARTESIAN_POINT('',(0.,0.,-4.29137915737912));
#616=CARTESIAN_POINT('',(0.,0.,0.));
#617=CARTESIAN_POINT('',(0.,0.,-6.35));
#618=MECHANICAL_DESIGN_GEOMETRIC_PRESENTATION_REPRESENTATION('',(#320,#321,
#322,#323,#324,#325),#619);
#619=(
GEOMETRIC_REPRESENTATION_CONTEXT(3)
GLOBAL_UNCERTAINTY_ASSIGNED_CONTEXT((#620))
GLOBAL_UNIT_ASSIGNED_CONTEXT((#626,#622,#621))
REPRESENTATION_CONTEXT('aaa338092_a','TOP_LEVEL_ASSEMBLY_PART')
);
#620=UNCERTAINTY_MEASURE_WITH_UNIT(LENGTH_MEASURE(2.E-5),#626,
'DISTANCE_ACCURACY_VALUE','Maximum Tolerance applied to model');
#621=(
NAMED_UNIT(*)
SI_UNIT($,.STERADIAN.)
SOLID_ANGLE_UNIT()
);
#622=(
CONVERSION_BASED_UNIT('DEGREE',#624)
NAMED_UNIT(#623)
PLANE_ANGLE_UNIT()
);
#623=DIMENSIONAL_EXPONENTS(0.,0.,0.,0.,0.,0.,0.);
#624=PLANE_ANGLE_MEASURE_WITH_UNIT(PLANE_ANGLE_MEASURE(0.0174532925),#625);
#625=(
NAMED_UNIT(*)
PLANE_ANGLE_UNIT()
SI_UNIT($,.RADIAN.)
);
#626=(
LENGTH_UNIT()
NAMED_UNIT(*)
SI_UNIT(.MILLI.,.METRE.)
);
ENDSEC;
END-ISO-10303-21;
