ISO-10303-21;
HEADER;
/* Generated by software containing ST-Developer
 * from STEP Tools, Inc. (www.steptools.com) 
 */
/* OPTION: using custom schema-name function */

FILE_DESCRIPTION(
/* description */ (''),
/* implementation_level */ '2;1');

FILE_NAME(
/* name */ 'aaa337637_a.stp',
/* time_stamp */ '2019-09-19T15:12:27+02:00',
/* author */ (''),
/* organization */ ('SMS'),
/* preprocessor_version */ 'ST-DEVELOPER v16.7',
/* originating_system */ 'SIEMENS PLM Software NX 12.0',
/* authorisation */ '');

FILE_SCHEMA (('AUTOMOTIVE_DESIGN { 1 0 10303 214 3 1 1 1 }'));
ENDSEC;

DATA;
#10=CONSTRUCTIVE_GEOMETRY_REPRESENTATION_RELATIONSHIP(
'supplemental geometry','',#26,#11);
#11=CONSTRUCTIVE_GEOMETRY_REPRESENTATION('supplemental geometry',(#211,
#212),#391);
#12=GEOMETRICALLY_BOUNDED_WIREFRAME_SHAPE_REPRESENTATION(
'AAA337637_A-None',(#27),#391);
#13=SHAPE_REPRESENTATION_RELATIONSHIP('None',
'relationship between AAA337637_A-None and AAA337637_A-None',#26,#15);
#14=SHAPE_REPRESENTATION_RELATIONSHIP('None',
'relationship between AAA337637_A-None and AAA337637_A-None',#26,#12);
#15=ADVANCED_BREP_SHAPE_REPRESENTATION('AAA337637_A-None',(#33),#391);
#16=SHAPE_DEFINITION_REPRESENTATION(#17,#26);
#17=PRODUCT_DEFINITION_SHAPE('','',#18);
#18=PRODUCT_DEFINITION(' ','',#20,#19);
#19=PRODUCT_DEFINITION_CONTEXT('part definition',#25,'design');
#20=PRODUCT_DEFINITION_FORMATION_WITH_SPECIFIED_SOURCE(' ',' ',#22,
 .NOT_KNOWN.);
#21=PRODUCT_RELATED_PRODUCT_CATEGORY('part','',(#22));
#22=PRODUCT('AAA337637_A','AAA337637_A','MASTER_INSERT',(#23));
#23=PRODUCT_CONTEXT(' ',#25,'mechanical');
#24=APPLICATION_PROTOCOL_DEFINITION('international standard',
'automotive_design',2010,#25);
#25=APPLICATION_CONTEXT(
'core data for automotive mechanical design processes');
#26=SHAPE_REPRESENTATION('AAA337637_A-None',(#210),#391);
#27=GEOMETRIC_CURVE_SET('None',(#283,#284,#190));
#28=SURFACE_STYLE_USAGE(.BOTH.,#29);
#29=SURFACE_SIDE_STYLE('',(#30));
#30=SURFACE_STYLE_FILL_AREA(#31);
#31=FILL_AREA_STYLE('',(#32));
#32=FILL_AREA_STYLE_COLOUR('',#209);
#33=MANIFOLD_SOLID_BREP('',#34);
#34=CLOSED_SHELL('',(#45,#46,#47,#48,#49,#50,#51,#52,#53));
#35=CYLINDRICAL_SURFACE('',#220,2.);
#36=CYLINDRICAL_SURFACE('',#224,2.);
#37=CYLINDRICAL_SURFACE('',#226,2.);
#38=CYLINDRICAL_SURFACE('',#229,1.905);
#39=FACE_OUTER_BOUND('',#91,.T.);
#40=FACE_OUTER_BOUND('',#92,.T.);
#41=FACE_OUTER_BOUND('',#93,.T.);
#42=FACE_OUTER_BOUND('',#94,.T.);
#43=FACE_OUTER_BOUND('',#95,.T.);
#44=FACE_OUTER_BOUND('',#96,.T.);
#45=ADVANCED_FACE('',(#83,#84),#54,.T.);
#46=ADVANCED_FACE('',(#39),#55,.T.);
#47=ADVANCED_FACE('',(#40),#35,.T.);
#48=ADVANCED_FACE('',(#41),#56,.T.);
#49=ADVANCED_FACE('',(#42),#57,.T.);
#50=ADVANCED_FACE('',(#43),#36,.T.);
#51=ADVANCED_FACE('',(#44),#37,.T.);
#52=ADVANCED_FACE('',(#85,#86),#58,.T.);
#53=ADVANCED_FACE('',(#87,#88),#38,.F.);
#54=PLANE('',#217);
#55=PLANE('',#218);
#56=PLANE('',#221);
#57=PLANE('',#222);
#58=PLANE('',#228);
#59=LINE('',#352,#71);
#60=LINE('',#356,#72);
#61=LINE('',#360,#73);
#62=LINE('',#362,#74);
#63=LINE('',#364,#75);
#64=LINE('',#366,#76);
#65=LINE('',#368,#77);
#66=LINE('',#372,#78);
#67=LINE('',#374,#79);
#68=LINE('',#376,#80);
#69=LINE('',#378,#81);
#70=LINE('',#380,#82);
#71=VECTOR('',#240,1.);
#72=VECTOR('',#243,1.);
#73=VECTOR('',#246,1.);
#74=VECTOR('',#249,1.);
#75=VECTOR('',#250,1.);
#76=VECTOR('',#251,1.);
#77=VECTOR('',#254,1.);
#78=VECTOR('',#259,1.);
#79=VECTOR('',#260,1.);
#80=VECTOR('',#263,1.);
#81=VECTOR('',#264,1.);
#82=VECTOR('',#265,1.);
#83=FACE_BOUND('',#89,.T.);
#84=FACE_BOUND('',#90,.T.);
#85=FACE_BOUND('',#97,.T.);
#86=FACE_BOUND('',#98,.T.);
#87=FACE_BOUND('',#99,.T.);
#88=FACE_BOUND('',#100,.T.);
#89=EDGE_LOOP('',(#101));
#90=EDGE_LOOP('',(#102,#103,#104,#105,#106,#107));
#91=EDGE_LOOP('',(#108,#109,#110,#111));
#92=EDGE_LOOP('',(#112,#113,#114,#115));
#93=EDGE_LOOP('',(#116,#117,#118,#119));
#94=EDGE_LOOP('',(#120,#121,#122,#123));
#95=EDGE_LOOP('',(#124,#125,#126,#127));
#96=EDGE_LOOP('',(#128,#129,#130,#131));
#97=EDGE_LOOP('',(#132));
#98=EDGE_LOOP('',(#133,#134,#135,#136,#137,#138));
#99=EDGE_LOOP('',(#139));
#100=EDGE_LOOP('',(#140));
#101=ORIENTED_EDGE('',*,*,#155,.T.);
#102=ORIENTED_EDGE('',*,*,#156,.F.);
#103=ORIENTED_EDGE('',*,*,#157,.F.);
#104=ORIENTED_EDGE('',*,*,#158,.F.);
#105=ORIENTED_EDGE('',*,*,#159,.F.);
#106=ORIENTED_EDGE('',*,*,#160,.F.);
#107=ORIENTED_EDGE('',*,*,#161,.F.);
#108=ORIENTED_EDGE('',*,*,#162,.T.);
#109=ORIENTED_EDGE('',*,*,#157,.T.);
#110=ORIENTED_EDGE('',*,*,#163,.F.);
#111=ORIENTED_EDGE('',*,*,#164,.T.);
#112=ORIENTED_EDGE('',*,*,#165,.T.);
#113=ORIENTED_EDGE('',*,*,#158,.T.);
#114=ORIENTED_EDGE('',*,*,#162,.F.);
#115=ORIENTED_EDGE('',*,*,#166,.T.);
#116=ORIENTED_EDGE('',*,*,#167,.T.);
#117=ORIENTED_EDGE('',*,*,#159,.T.);
#118=ORIENTED_EDGE('',*,*,#165,.F.);
#119=ORIENTED_EDGE('',*,*,#168,.T.);
#120=ORIENTED_EDGE('',*,*,#169,.T.);
#121=ORIENTED_EDGE('',*,*,#161,.T.);
#122=ORIENTED_EDGE('',*,*,#170,.F.);
#123=ORIENTED_EDGE('',*,*,#171,.T.);
#124=ORIENTED_EDGE('',*,*,#163,.T.);
#125=ORIENTED_EDGE('',*,*,#156,.T.);
#126=ORIENTED_EDGE('',*,*,#169,.F.);
#127=ORIENTED_EDGE('',*,*,#172,.T.);
#128=ORIENTED_EDGE('',*,*,#170,.T.);
#129=ORIENTED_EDGE('',*,*,#160,.T.);
#130=ORIENTED_EDGE('',*,*,#167,.F.);
#131=ORIENTED_EDGE('',*,*,#173,.T.);
#132=ORIENTED_EDGE('',*,*,#174,.T.);
#133=ORIENTED_EDGE('',*,*,#172,.F.);
#134=ORIENTED_EDGE('',*,*,#171,.F.);
#135=ORIENTED_EDGE('',*,*,#173,.F.);
#136=ORIENTED_EDGE('',*,*,#168,.F.);
#137=ORIENTED_EDGE('',*,*,#166,.F.);
#138=ORIENTED_EDGE('',*,*,#164,.F.);
#139=ORIENTED_EDGE('',*,*,#155,.F.);
#140=ORIENTED_EDGE('',*,*,#174,.F.);
#141=VERTEX_POINT('',#348);
#142=VERTEX_POINT('',#350);
#143=VERTEX_POINT('',#351);
#144=VERTEX_POINT('',#353);
#145=VERTEX_POINT('',#355);
#146=VERTEX_POINT('',#357);
#147=VERTEX_POINT('',#359);
#148=VERTEX_POINT('',#363);
#149=VERTEX_POINT('',#365);
#150=VERTEX_POINT('',#369);
#151=VERTEX_POINT('',#373);
#152=VERTEX_POINT('',#377);
#153=VERTEX_POINT('',#379);
#154=VERTEX_POINT('',#387);
#155=EDGE_CURVE('',#141,#141,#175,.T.);
#156=EDGE_CURVE('',#142,#143,#176,.T.);
#157=EDGE_CURVE('',#144,#142,#59,.T.);
#158=EDGE_CURVE('',#145,#144,#177,.T.);
#159=EDGE_CURVE('',#146,#145,#60,.T.);
#160=EDGE_CURVE('',#147,#146,#178,.T.);
#161=EDGE_CURVE('',#143,#147,#61,.T.);
#162=EDGE_CURVE('',#148,#144,#62,.T.);
#163=EDGE_CURVE('',#149,#142,#63,.T.);
#164=EDGE_CURVE('',#149,#148,#64,.T.);
#165=EDGE_CURVE('',#150,#145,#65,.T.);
#166=EDGE_CURVE('',#148,#150,#179,.T.);
#167=EDGE_CURVE('',#151,#146,#66,.T.);
#168=EDGE_CURVE('',#150,#151,#67,.T.);
#169=EDGE_CURVE('',#152,#143,#68,.T.);
#170=EDGE_CURVE('',#153,#147,#69,.T.);
#171=EDGE_CURVE('',#153,#152,#70,.T.);
#172=EDGE_CURVE('',#152,#149,#180,.T.);
#173=EDGE_CURVE('',#151,#153,#181,.T.);
#174=EDGE_CURVE('',#154,#154,#182,.T.);
#175=CIRCLE('',#213,1.905);
#176=CIRCLE('',#214,2.);
#177=CIRCLE('',#215,2.);
#178=CIRCLE('',#216,2.);
#179=CIRCLE('',#219,2.);
#180=CIRCLE('',#223,2.);
#181=CIRCLE('',#225,2.);
#182=CIRCLE('',#227,1.905);
#183=CURVE_STYLE('',#187,POSITIVE_LENGTH_MEASURE(0.18),#186);
#184=CURVE_STYLE('',#188,POSITIVE_LENGTH_MEASURE(0.18),#208);
#185=CURVE_STYLE('',#189,POSITIVE_LENGTH_MEASURE(0.18),#208);
#186=DRAUGHTING_PRE_DEFINED_COLOUR('blue');
#187=DRAUGHTING_PRE_DEFINED_CURVE_FONT('continuous');
#188=DRAUGHTING_PRE_DEFINED_CURVE_FONT('continuous');
#189=DRAUGHTING_PRE_DEFINED_CURVE_FONT('continuous');
#190=B_SPLINE_CURVE_WITH_KNOTS('CUTTING EDGE LINE',3,(#285,#286,#287,#288,
#289,#290,#291,#292,#293,#294,#295,#296,#297,#298,#299,#300,#301,#302,#303,
#304,#305,#306,#307,#308,#309,#310,#311,#312,#313,#314,#315,#316,#317,#318,
#319,#320,#321,#322,#323,#324,#325,#326,#327,#328,#329,#330,#331,#332,#333,
#334,#335,#336,#337,#338,#339,#340,#341,#342,#343,#344),.UNSPECIFIED.,.T.,
 .F.,(1,1,2,1,1,1,1,1,1,1,1,1,1,1,1,1,1,1,1,1,1,1,1,1,1,1,1,1,1,1,1,1,1,
1,1,1,1,1,1,1,1,1,1,1,1,1,1,1,1,1,1,1,1,1,1,1,1,1,1,2,1,1),(-0.22895057870875,
-0.11592434365,0.,0.01268558075,0.0253711615,0.03805674225,0.0507423229999999,
0.06342790375,0.0761134845,0.0887990652499999,0.095141855625,0.0983132508125,
0.100493585003906,0.101484646,0.103295963869792,0.105107281739583,0.159446817833333,
0.217408989666667,0.330435224741667,0.3318842790375,0.333333333333333,0.334126182130729,
0.336504728522917,0.3396761237125,0.346018914091667,0.35870449485,0.371390075608333,
0.384075656366667,0.396761237125,0.409446817883333,0.422132398641667,0.428475189020833,
0.431646584210417,0.433826918403255,0.4348179794,0.436629297269271,0.438440615138542,
0.492780151216667,0.550742323033333,0.663768558075833,0.66521761237125,
0.666666666666667,0.667459515463802,0.669838061855208,0.67300945704375,
0.679352247420833,0.692037828175,0.704723408929167,0.717408989683333,0.7300945704375,
0.742780151191667,0.755465731945833,0.761808522322917,0.764979917511458,
0.767358463902865,0.7681513127,0.769600366995625,0.77104942129125,0.88407565635,
1.,1.01268558075,1.0253711615),.UNSPECIFIED.);
#191=PRESENTATION_LAYER_ASSIGNMENT('1','Layer 1',(#283,#284,#190,#211,#212,
#33));
#192=STYLED_ITEM('',(#198),#283);
#193=STYLED_ITEM('',(#199),#284);
#194=STYLED_ITEM('',(#200),#190);
#195=STYLED_ITEM('',(#201),#211);
#196=STYLED_ITEM('',(#202),#212);
#197=STYLED_ITEM('',(#203),#33);
#198=PRESENTATION_STYLE_ASSIGNMENT((#204));
#199=PRESENTATION_STYLE_ASSIGNMENT((#205));
#200=PRESENTATION_STYLE_ASSIGNMENT((#183));
#201=PRESENTATION_STYLE_ASSIGNMENT((#184));
#202=PRESENTATION_STYLE_ASSIGNMENT((#185));
#203=PRESENTATION_STYLE_ASSIGNMENT((#28));
#204=POINT_STYLE('',#206,POSITIVE_LENGTH_MEASURE(3.),#208);
#205=POINT_STYLE('',#207,POSITIVE_LENGTH_MEASURE(3.),#208);
#206=PRE_DEFINED_POINT_MARKER_SYMBOL('plus');
#207=PRE_DEFINED_POINT_MARKER_SYMBOL('plus');
#208=COLOUR_RGB('Dark Red Pink',0.8,0.,0.2);
#209=COLOUR_RGB('Pale Gray',0.8,0.8,0.8);
#210=AXIS2_PLACEMENT_3D('',#282,#230,#231);
#211=AXIS2_PLACEMENT_3D('MCS',#345,#232,#233);
#212=AXIS2_PLACEMENT_3D('PCS',#346,#234,#235);
#213=AXIS2_PLACEMENT_3D('',#347,#236,#237);
#214=AXIS2_PLACEMENT_3D('',#349,#238,#239);
#215=AXIS2_PLACEMENT_3D('',#354,#241,#242);
#216=AXIS2_PLACEMENT_3D('',#358,#244,#245);
#217=AXIS2_PLACEMENT_3D('',#361,#247,#248);
#218=AXIS2_PLACEMENT_3D('',#367,#252,#253);
#219=AXIS2_PLACEMENT_3D('',#370,#255,#256);
#220=AXIS2_PLACEMENT_3D('',#371,#257,#258);
#221=AXIS2_PLACEMENT_3D('',#375,#261,#262);
#222=AXIS2_PLACEMENT_3D('',#381,#266,#267);
#223=AXIS2_PLACEMENT_3D('',#382,#268,#269);
#224=AXIS2_PLACEMENT_3D('',#383,#270,#271);
#225=AXIS2_PLACEMENT_3D('',#384,#272,#273);
#226=AXIS2_PLACEMENT_3D('',#385,#274,#275);
#227=AXIS2_PLACEMENT_3D('',#386,#276,#277);
#228=AXIS2_PLACEMENT_3D('',#388,#278,#279);
#229=AXIS2_PLACEMENT_3D('',#389,#280,#281);
#230=DIRECTION('',(0.,0.,1.));
#231=DIRECTION('',(1.,0.,0.));
#232=DIRECTION('',(0.,0.,1.));
#233=DIRECTION('',(0.,-1.,0.));
#234=DIRECTION('',(0.,0.,1.));
#235=DIRECTION('',(0.,-1.,0.));
#236=DIRECTION('',(0.,0.,1.));
#237=DIRECTION('',(-1.,0.,0.));
#238=DIRECTION('',(0.,0.,1.));
#239=DIRECTION('',(-1.,0.,0.));
#240=DIRECTION('',(0.,-1.,0.));
#241=DIRECTION('',(0.,0.,1.));
#242=DIRECTION('',(-1.,0.,0.));
#243=DIRECTION('',(-0.866025403784439,0.5,0.));
#244=DIRECTION('',(0.,0.,1.));
#245=DIRECTION('',(-1.,0.,0.));
#246=DIRECTION('',(0.866025403784439,0.499999999999999,0.));
#247=DIRECTION('',(0.,0.,-1.));
#248=DIRECTION('',(-1.,0.,0.));
#249=DIRECTION('',(1.10071286546752E-16,0.,-1.));
#250=DIRECTION('',(1.10071286546752E-16,-1.4791141972894E-31,-1.));
#251=DIRECTION('',(0.,1.,0.));
#252=DIRECTION('',(-1.,0.,0.));
#253=DIRECTION('',(0.,0.,1.));
#254=DIRECTION('',(-5.50356432733758E-17,-9.53245303767233E-17,-1.));
#255=DIRECTION('',(0.,0.,-1.));
#256=DIRECTION('',(1.,0.,0.));
#257=DIRECTION('',(0.,0.,1.));
#258=DIRECTION('',(1.,0.,0.));
#259=DIRECTION('',(-5.50356432733762E-17,-9.53245303767231E-17,-1.));
#260=DIRECTION('',(0.866025403784439,-0.5,0.));
#261=DIRECTION('',(0.5,0.866025403784439,0.));
#262=DIRECTION('',(0.,0.,1.));
#263=DIRECTION('',(-5.50356432733757E-17,9.53245303767234E-17,-1.));
#264=DIRECTION('',(-5.50356432733756E-17,9.53245303767235E-17,-1.));
#265=DIRECTION('',(-0.866025403784439,-0.499999999999999,0.));
#266=DIRECTION('',(0.499999999999999,-0.86602540378444,0.));
#267=DIRECTION('',(0.,0.,1.));
#268=DIRECTION('',(0.,0.,-1.));
#269=DIRECTION('',(1.,0.,0.));
#270=DIRECTION('',(0.,0.,1.));
#271=DIRECTION('',(-0.499999999999999,0.86602540378444,0.));
#272=DIRECTION('',(0.,0.,-1.));
#273=DIRECTION('',(1.,0.,0.));
#274=DIRECTION('',(0.,0.,1.));
#275=DIRECTION('',(-0.500000000000003,-0.866025403784437,0.));
#276=DIRECTION('',(0.,0.,-1.));
#277=DIRECTION('',(1.,0.,0.));
#278=DIRECTION('',(0.,0.,1.));
#279=DIRECTION('',(1.,0.,0.));
#280=DIRECTION('',(0.,0.,1.));
#281=DIRECTION('',(1.,0.,0.));
#282=CARTESIAN_POINT('',(0.,0.,0.));
#283=CARTESIAN_POINT('',(0.,0.,0.));
#284=CARTESIAN_POINT('',(-4.7625,8.24889197104678,0.));
#285=CARTESIAN_POINT('',(-0.381250000000005,5.71937610415973,0.));
#286=CARTESIAN_POINT('',(-1.91364994701952,6.60410762607762,0.));
#287=CARTESIAN_POINT('',(-2.23891530824182,6.73883502587207,0.));
#288=CARTESIAN_POINT('',(-2.76250000020101,6.80776802091137,0.));
#289=CARTESIAN_POINT('',(-3.28608469151501,6.73883502593657,0.));
#290=CARTESIAN_POINT('',(-3.7739888326322,6.5367404049699,0.));
#291=CARTESIAN_POINT('',(-4.19295997889011,6.21525033451203,0.));
#292=CARTESIAN_POINT('',(-4.51445004918584,5.7962791883045,0.));
#293=CARTESIAN_POINT('',(-4.68286223324905,5.38969240408063,0.));
#294=CARTESIAN_POINT('',(-4.74249255073213,5.08947449532035,0.));
#295=CARTESIAN_POINT('',(-4.75828910116427,4.9292661481181,0.));
#296=CARTESIAN_POINT('',(-4.76205121748107,4.84205883444838,0.));
#297=CARTESIAN_POINT('',(-4.76262815933495,4.77350499687268,0.));
#298=CARTESIAN_POINT('',(-4.7625,4.71002800659795,0.));
#299=CARTESIAN_POINT('',(-4.7625,3.91256294727978,0.));
#300=CARTESIAN_POINT('',(-4.7625,2.34255361174713,0.));
#301=CARTESIAN_POINT('',(-4.7625,-0.757591806352262,0.));
#302=CARTESIAN_POINT('',(-4.7625,-3.13005035782382,0.));
#303=CARTESIAN_POINT('',(-4.7625,-4.72498047646016,0.));
#304=CARTESIAN_POINT('',(-4.76258202197408,-4.7757620624064,0.));
#305=CARTESIAN_POINT('',(-4.76214097398591,-4.83933178499703,0.));
#306=CARTESIAN_POINT('',(-4.75855683931768,-4.92655075236846,0.));
#307=CARTESIAN_POINT('',(-4.74249255077351,-5.08947449518392,0.));
#308=CARTESIAN_POINT('',(-4.6828622333439,-5.38969240376015,0.));
#309=CARTESIAN_POINT('',(-4.51445004908006,-5.79627918858429,0.));
#310=CARTESIAN_POINT('',(-4.19295997861594,-6.21525033480743,0.));
#311=CARTESIAN_POINT('',(-3.77398883233202,-6.53674040514321,0.));
#312=CARTESIAN_POINT('',(-3.28608469112209,-6.73883502602631,0.));
#313=CARTESIAN_POINT('',(-2.76249999990583,-6.80776802086309,0.));
#314=CARTESIAN_POINT('',(-2.32617942389333,-6.75032385845671,0.));
#315=CARTESIAN_POINT('',(-2.03636792949435,-6.65185627385265,0.));
#316=CARTESIAN_POINT('',(-1.88972515570281,-6.58543231421792,0.));
#317=CARTESIAN_POINT('',(-1.81232034851063,-6.54508674568541,0.));
#318=CARTESIAN_POINT('',(-1.75266251273205,-6.51130947320852,0.));
#319=CARTESIAN_POINT('',(-1.69775390625001,-6.47945998882236,0.));
#320=CARTESIAN_POINT('',(-1.00712890625001,-6.08072745916327,0.));
#321=CARTESIAN_POINT('',(0.352539062499993,-5.29572279139695,0.));
#322=CARTESIAN_POINT('',(3.03734374999999,-3.74565008234726,0.));
#323=CARTESIAN_POINT('',(5.091953125,-2.55942080661149,0.));
#324=CARTESIAN_POINT('',(6.473203125,-1.76195574729332,0.));
#325=CARTESIAN_POINT('',(6.51722227946039,-1.73663598743374,0.));
#326=CARTESIAN_POINT('',(6.57205475014188,-1.70446916737607,0.));
#327=CARTESIAN_POINT('',(6.64579652424326,-1.65775573201708,0.));
#328=CARTESIAN_POINT('',(6.77886048012901,-1.56238177863637,0.));
#329=CARTESIAN_POINT('',(7.00904165691225,-1.36063145461848,0.));
#330=CARTESIAN_POINT('',(7.27695004928107,-1.0114888323271,0.));
#331=CARTESIAN_POINT('',(7.47904467013094,-0.523584691129147,0.));
#332=CARTESIAN_POINT('',(7.54797766496421,1.73302094896854E-10,0.));
#333=CARTESIAN_POINT('',(7.4790446700122,0.523584691514281,0.));
#334=CARTESIAN_POINT('',(7.27695004909166,1.01148883255859,0.));
#335=CARTESIAN_POINT('',(7.00904165714237,1.36063145437609,0.));
#336=CARTESIAN_POINT('',(6.77886048022647,1.5623817785323,0.));
#337=CARTESIAN_POINT('',(6.64579652426776,1.6577557319908,0.));
#338=CARTESIAN_POINT('',(6.57205475014433,1.70446916737341,0.));
#339=CARTESIAN_POINT('',(6.51722227945792,1.73663598743544,0.));
#340=CARTESIAN_POINT('',(6.473203125,1.7619557472933,0.));
#341=CARTESIAN_POINT('',(5.091953125,2.55942080661147,0.));
#342=CARTESIAN_POINT('',(2.34671875,4.14438261200634,0.));
#343=CARTESIAN_POINT('',(-0.381250000000005,5.71937610415973,0.));
#344=CARTESIAN_POINT('',(-1.91364994701952,6.60410762607762,0.));
#345=CARTESIAN_POINT('',(0.,0.,0.));
#346=CARTESIAN_POINT('',(-4.7625,8.24889197104678,0.));
#347=CARTESIAN_POINT('',(0.,0.,-4.76));
#348=CARTESIAN_POINT('',(-1.905,0.,-4.76));
#349=CARTESIAN_POINT('',(-2.76250000000001,-4.78479035590902,-4.76));
#350=CARTESIAN_POINT('',(-4.7625,-4.78479035590903,-4.76));
#351=CARTESIAN_POINT('',(-1.76250000000001,-6.5168411634779,-4.76));
#352=CARTESIAN_POINT('',(-4.7625,-16.,-4.76));
#353=CARTESIAN_POINT('',(-4.7625,4.78479035590902,-4.76));
#354=CARTESIAN_POINT('',(-2.7625,4.78479035590902,-4.76));
#355=CARTESIAN_POINT('',(-1.7625,6.5168411634779,-4.76));
#356=CARTESIAN_POINT('',(16.237656460551,-3.87555401447661,-4.76));
#357=CARTESIAN_POINT('',(6.525,1.73205080756886,-4.76));
#358=CARTESIAN_POINT('',(5.525,-1.64798730217797E-14,-4.76));
#359=CARTESIAN_POINT('',(6.52500000000001,-1.73205080756889,-4.76));
#360=CARTESIAN_POINT('',(16.237656460551,3.87555401447659,-4.76));
#361=CARTESIAN_POINT('',(0.,0.,-4.76));
#362=CARTESIAN_POINT('',(-4.7625,4.78479035590902,7.));
#363=CARTESIAN_POINT('',(-4.7625,4.78479035590903,0.));
#364=CARTESIAN_POINT('',(-4.76250000000001,-4.78479035590902,7.));
#365=CARTESIAN_POINT('',(-4.7625,-4.78479035590903,0.));
#366=CARTESIAN_POINT('',(-4.7625,-16.,0.));
#367=CARTESIAN_POINT('',(-4.7625,-16.,0.));
#368=CARTESIAN_POINT('',(-1.7625,6.5168411634779,7.));
#369=CARTESIAN_POINT('',(-1.7625,6.5168411634779,0.));
#370=CARTESIAN_POINT('',(-2.7625,4.78479035590902,0.));
#371=CARTESIAN_POINT('',(-2.7625,4.78479035590902,-17.325));
#372=CARTESIAN_POINT('',(6.52500000000001,1.73205080756886,7.));
#373=CARTESIAN_POINT('',(6.525,1.73205080756886,0.));
#374=CARTESIAN_POINT('',(16.237656460551,-3.87555401447661,0.));
#375=CARTESIAN_POINT('',(16.237656460551,-3.87555401447661,0.));
#376=CARTESIAN_POINT('',(-1.76250000000001,-6.5168411634779,7.));
#377=CARTESIAN_POINT('',(-1.76250000000001,-6.5168411634779,0.));
#378=CARTESIAN_POINT('',(6.525,-1.7320508075689,7.));
#379=CARTESIAN_POINT('',(6.525,-1.7320508075689,0.));
#380=CARTESIAN_POINT('',(16.237656460551,3.87555401447659,0.));
#381=CARTESIAN_POINT('',(16.237656460551,3.87555401447659,0.));
#382=CARTESIAN_POINT('',(-2.76250000000001,-4.78479035590902,0.));
#383=CARTESIAN_POINT('',(-2.76250000000001,-4.78479035590902,-17.325));
#384=CARTESIAN_POINT('',(5.525,-1.64798730217797E-14,0.));
#385=CARTESIAN_POINT('',(5.525,-1.64798730217797E-14,-17.325));
#386=CARTESIAN_POINT('',(0.,0.,0.));
#387=CARTESIAN_POINT('',(1.905,0.,0.));
#388=CARTESIAN_POINT('',(0.,0.,0.));
#389=CARTESIAN_POINT('',(0.,0.,0.0999999999999997));
#390=MECHANICAL_DESIGN_GEOMETRIC_PRESENTATION_REPRESENTATION('',(#192,#193,
#194,#195,#196,#197),#391);
#391=(
GEOMETRIC_REPRESENTATION_CONTEXT(3)
GLOBAL_UNCERTAINTY_ASSIGNED_CONTEXT((#392))
GLOBAL_UNIT_ASSIGNED_CONTEXT((#398,#394,#393))
REPRESENTATION_CONTEXT('aaa337637_a','TOP_LEVEL_ASSEMBLY_PART')
);
#392=UNCERTAINTY_MEASURE_WITH_UNIT(LENGTH_MEASURE(2.E-5),#398,
'DISTANCE_ACCURACY_VALUE','Maximum Tolerance applied to model');
#393=(
NAMED_UNIT(*)
SI_UNIT($,.STERADIAN.)
SOLID_ANGLE_UNIT()
);
#394=(
CONVERSION_BASED_UNIT('DEGREE',#396)
NAMED_UNIT(#395)
PLANE_ANGLE_UNIT()
);
#395=DIMENSIONAL_EXPONENTS(0.,0.,0.,0.,0.,0.,0.);
#396=PLANE_ANGLE_MEASURE_WITH_UNIT(PLANE_ANGLE_MEASURE(0.0174532925),#397);
#397=(
NAMED_UNIT(*)
PLANE_ANGLE_UNIT()
SI_UNIT($,.RADIAN.)
);
#398=(
LENGTH_UNIT()
NAMED_UNIT(*)
SI_UNIT(.MILLI.,.METRE.)
);
ENDSEC;
END-ISO-10303-21;
