ISO-10303-21;
HEADER;
/* Generated by software containing ST-Developer
 * from STEP Tools, Inc. (www.steptools.com) 
 */
/* OPTION: using custom schema-name function */

FILE_DESCRIPTION(
/* description */ (''),
/* implementation_level */ '2;1');

FILE_NAME(
/* name */ 'aaa336266_a.stp',
/* time_stamp */ '2019-09-19T13:19:21+02:00',
/* author */ (''),
/* organization */ ('SMS'),
/* preprocessor_version */ 'ST-DEVELOPER v16.7',
/* originating_system */ 'SIEMENS PLM Software NX 12.0',
/* authorisation */ '');

FILE_SCHEMA (('AUTOMOTIVE_DESIGN { 1 0 10303 214 3 1 1 1 }'));
ENDSEC;

DATA;
#10=CONSTRUCTIVE_GEOMETRY_REPRESENTATION_RELATIONSHIP(
'supplemental geometry','',#26,#11);
#11=CONSTRUCTIVE_GEOMETRY_REPRESENTATION('supplemental geometry',(#196,
#197,#198),#361);
#12=GEOMETRICALLY_BOUNDED_WIREFRAME_SHAPE_REPRESENTATION(
'AAA336266_A-None',(#27),#361);
#13=SHAPE_REPRESENTATION_RELATIONSHIP('None',
'relationship between AAA336266_A-None and AAA336266_A-None',#26,#15);
#14=SHAPE_REPRESENTATION_RELATIONSHIP('None',
'relationship between AAA336266_A-None and AAA336266_A-None',#26,#12);
#15=ADVANCED_BREP_SHAPE_REPRESENTATION('AAA336266_A-None',(#33),#361);
#16=SHAPE_DEFINITION_REPRESENTATION(#17,#26);
#17=PRODUCT_DEFINITION_SHAPE('','',#18);
#18=PRODUCT_DEFINITION(' ','',#20,#19);
#19=PRODUCT_DEFINITION_CONTEXT('part definition',#25,'design');
#20=PRODUCT_DEFINITION_FORMATION_WITH_SPECIFIED_SOURCE(' ',' ',#22,
 .NOT_KNOWN.);
#21=PRODUCT_RELATED_PRODUCT_CATEGORY('part','',(#22));
#22=PRODUCT('AAA336266_A','AAA336266_A','MASTER_INSERT',(#23));
#23=PRODUCT_CONTEXT(' ',#25,'mechanical');
#24=APPLICATION_PROTOCOL_DEFINITION('international standard',
'automotive_design',2010,#25);
#25=APPLICATION_CONTEXT(
'core data for automotive mechanical design processes');
#26=SHAPE_REPRESENTATION('AAA336266_A-None',(#195),#361);
#27=GEOMETRIC_CURVE_SET('None',(#262,#263,#172));
#28=SURFACE_STYLE_USAGE(.BOTH.,#29);
#29=SURFACE_SIDE_STYLE('',(#30));
#30=SURFACE_STYLE_FILL_AREA(#31);
#31=FILL_AREA_STYLE('',(#32));
#32=FILL_AREA_STYLE_COLOUR('',#194);
#33=MANIFOLD_SOLID_BREP('',#34);
#34=CLOSED_SHELL('',(#44,#45,#46,#47,#48,#49,#50,#51));
#35=CONICAL_SURFACE('',#202,9.69739903612216E-16,11.);
#36=CONICAL_SURFACE('',#207,9.69739903612216E-16,11.);
#37=CONICAL_SURFACE('',#210,9.69739903612216E-16,11.);
#38=CIRCLE('',#200,0.572870616942057);
#39=CIRCLE('',#201,1.191);
#40=CIRCLE('',#205,0.572870616942057);
#41=CIRCLE('',#206,1.191);
#42=CIRCLE('',#208,0.572870616942057);
#43=CIRCLE('',#209,1.191);
#44=ADVANCED_FACE('',(#57),#52,.T.);
#45=ADVANCED_FACE('',(#58),#35,.T.);
#46=ADVANCED_FACE('',(#59),#53,.T.);
#47=ADVANCED_FACE('',(#60),#54,.T.);
#48=ADVANCED_FACE('',(#61),#36,.T.);
#49=ADVANCED_FACE('',(#62),#37,.T.);
#50=ADVANCED_FACE('',(#63),#55,.T.);
#51=ADVANCED_FACE('',(#64),#56,.T.);
#52=PLANE('',#199);
#53=PLANE('',#203);
#54=PLANE('',#204);
#55=PLANE('',#211);
#56=PLANE('',#212);
#57=FACE_OUTER_BOUND('',#65,.T.);
#58=FACE_OUTER_BOUND('',#66,.T.);
#59=FACE_OUTER_BOUND('',#67,.T.);
#60=FACE_OUTER_BOUND('',#68,.T.);
#61=FACE_OUTER_BOUND('',#69,.T.);
#62=FACE_OUTER_BOUND('',#70,.T.);
#63=FACE_OUTER_BOUND('',#71,.T.);
#64=FACE_OUTER_BOUND('',#72,.T.);
#65=EDGE_LOOP('',(#73,#74,#75,#76));
#66=EDGE_LOOP('',(#77,#78,#79,#80));
#67=EDGE_LOOP('',(#81,#82,#83,#84));
#68=EDGE_LOOP('',(#85,#86,#87,#88));
#69=EDGE_LOOP('',(#89,#90,#91,#92));
#70=EDGE_LOOP('',(#93,#94,#95,#96));
#71=EDGE_LOOP('',(#97,#98,#99,#100,#101,#102));
#72=EDGE_LOOP('',(#103,#104,#105,#106,#107,#108));
#73=ORIENTED_EDGE('',*,*,#121,.F.);
#74=ORIENTED_EDGE('',*,*,#122,.T.);
#75=ORIENTED_EDGE('',*,*,#123,.T.);
#76=ORIENTED_EDGE('',*,*,#124,.T.);
#77=ORIENTED_EDGE('',*,*,#125,.F.);
#78=ORIENTED_EDGE('',*,*,#121,.T.);
#79=ORIENTED_EDGE('',*,*,#126,.F.);
#80=ORIENTED_EDGE('',*,*,#127,.F.);
#81=ORIENTED_EDGE('',*,*,#128,.F.);
#82=ORIENTED_EDGE('',*,*,#129,.T.);
#83=ORIENTED_EDGE('',*,*,#127,.T.);
#84=ORIENTED_EDGE('',*,*,#130,.T.);
#85=ORIENTED_EDGE('',*,*,#131,.F.);
#86=ORIENTED_EDGE('',*,*,#132,.T.);
#87=ORIENTED_EDGE('',*,*,#133,.T.);
#88=ORIENTED_EDGE('',*,*,#134,.T.);
#89=ORIENTED_EDGE('',*,*,#135,.F.);
#90=ORIENTED_EDGE('',*,*,#131,.T.);
#91=ORIENTED_EDGE('',*,*,#136,.F.);
#92=ORIENTED_EDGE('',*,*,#123,.F.);
#93=ORIENTED_EDGE('',*,*,#137,.F.);
#94=ORIENTED_EDGE('',*,*,#128,.T.);
#95=ORIENTED_EDGE('',*,*,#138,.F.);
#96=ORIENTED_EDGE('',*,*,#133,.F.);
#97=ORIENTED_EDGE('',*,*,#124,.F.);
#98=ORIENTED_EDGE('',*,*,#136,.T.);
#99=ORIENTED_EDGE('',*,*,#134,.F.);
#100=ORIENTED_EDGE('',*,*,#138,.T.);
#101=ORIENTED_EDGE('',*,*,#130,.F.);
#102=ORIENTED_EDGE('',*,*,#126,.T.);
#103=ORIENTED_EDGE('',*,*,#132,.F.);
#104=ORIENTED_EDGE('',*,*,#135,.T.);
#105=ORIENTED_EDGE('',*,*,#122,.F.);
#106=ORIENTED_EDGE('',*,*,#125,.T.);
#107=ORIENTED_EDGE('',*,*,#129,.F.);
#108=ORIENTED_EDGE('',*,*,#137,.T.);
#109=VERTEX_POINT('',#323);
#110=VERTEX_POINT('',#324);
#111=VERTEX_POINT('',#326);
#112=VERTEX_POINT('',#328);
#113=VERTEX_POINT('',#332);
#114=VERTEX_POINT('',#334);
#115=VERTEX_POINT('',#338);
#116=VERTEX_POINT('',#339);
#117=VERTEX_POINT('',#344);
#118=VERTEX_POINT('',#345);
#119=VERTEX_POINT('',#347);
#120=VERTEX_POINT('',#349);
#121=EDGE_CURVE('',#109,#110,#139,.T.);
#122=EDGE_CURVE('',#109,#111,#140,.T.);
#123=EDGE_CURVE('',#111,#112,#141,.T.);
#124=EDGE_CURVE('',#112,#110,#142,.T.);
#125=EDGE_CURVE('',#109,#113,#38,.T.);
#126=EDGE_CURVE('',#114,#110,#39,.T.);
#127=EDGE_CURVE('',#113,#114,#143,.T.);
#128=EDGE_CURVE('',#115,#116,#144,.T.);
#129=EDGE_CURVE('',#115,#113,#145,.T.);
#130=EDGE_CURVE('',#114,#116,#146,.T.);
#131=EDGE_CURVE('',#117,#118,#147,.T.);
#132=EDGE_CURVE('',#117,#119,#148,.T.);
#133=EDGE_CURVE('',#119,#120,#149,.T.);
#134=EDGE_CURVE('',#120,#118,#150,.T.);
#135=EDGE_CURVE('',#117,#111,#40,.T.);
#136=EDGE_CURVE('',#112,#118,#41,.T.);
#137=EDGE_CURVE('',#115,#119,#42,.T.);
#138=EDGE_CURVE('',#120,#116,#43,.T.);
#139=LINE('',#322,#151);
#140=LINE('',#325,#152);
#141=LINE('',#327,#153);
#142=LINE('',#329,#154);
#143=LINE('',#335,#155);
#144=LINE('',#337,#156);
#145=LINE('',#340,#157);
#146=LINE('',#341,#158);
#147=LINE('',#343,#159);
#148=LINE('',#346,#160);
#149=LINE('',#348,#161);
#150=LINE('',#350,#162);
#151=VECTOR('',#221,1.);
#152=VECTOR('',#222,1.);
#153=VECTOR('',#223,1.);
#154=VECTOR('',#224,1.);
#155=VECTOR('',#231,1.);
#156=VECTOR('',#234,1.);
#157=VECTOR('',#235,1.);
#158=VECTOR('',#236,1.);
#159=VECTOR('',#239,1.);
#160=VECTOR('',#240,1.);
#161=VECTOR('',#241,1.);
#162=VECTOR('',#242,1.);
#163=CURVE_STYLE('',#168,POSITIVE_LENGTH_MEASURE(0.18),#167);
#164=CURVE_STYLE('',#169,POSITIVE_LENGTH_MEASURE(0.13),#193);
#165=CURVE_STYLE('',#170,POSITIVE_LENGTH_MEASURE(0.18),#192);
#166=CURVE_STYLE('',#171,POSITIVE_LENGTH_MEASURE(0.18),#192);
#167=DRAUGHTING_PRE_DEFINED_COLOUR('blue');
#168=DRAUGHTING_PRE_DEFINED_CURVE_FONT('continuous');
#169=DRAUGHTING_PRE_DEFINED_CURVE_FONT('continuous');
#170=DRAUGHTING_PRE_DEFINED_CURVE_FONT('continuous');
#171=DRAUGHTING_PRE_DEFINED_CURVE_FONT('continuous');
#172=B_SPLINE_CURVE_WITH_KNOTS('CUTTING EDGE LINE',3,(#264,#265,#266,#267,
#268,#269,#270,#271,#272,#273,#274,#275,#276,#277,#278,#279,#280,#281,#282,
#283,#284,#285,#286,#287,#288,#289,#290,#291,#292,#293,#294,#295,#296,#297,
#298,#299,#300,#301,#302,#303,#304,#305,#306,#307,#308,#309,#310,#311,#312,
#313,#314,#315,#316,#317,#318),.UNSPECIFIED.,.T.,.F.,(1,1,2,1,1,1,1,1,1,
1,1,1,1,1,1,1,1,1,1,1,1,1,1,1,1,1,1,1,1,1,1,1,1,1,1,1,1,1,1,1,1,1,1,1,1,
1,1,1,1,1,1,1,1,1,2,1,1),(-0.0139823915999999,-0.00699119579999996,0.,0.13870188345,
0.275669993356875,0.276536880128438,0.2774037669,0.279151565851042,0.280899364802083,
0.284394962704167,0.291386158508333,0.2983773543125,0.305368550116667,0.312359745920833,
0.319350941725,0.326342137529167,0.32983773543125,0.331585534382292,0.333333333333333,
0.334200220105104,0.335067106876875,0.472035216816667,0.541386158558333,
0.609003326756458,0.609870213528229,0.6107371003,0.612484899248958,0.614232698197917,
0.617728296095833,0.624719491891667,0.6317106876875,0.638701883483333,0.645693079279167,
0.652684275075,0.659675470870833,0.66317106876875,0.664918867717708,0.666666666666667,
0.667533553438333,0.66840044021,0.805368550133333,0.874719491866667,0.942336660056667,
0.943203546828333,0.9440704336,0.94581823255,0.9475660315,0.9510616294,
0.9580528252,0.965044021,0.9720352168,0.9790264126,0.9860176084,0.9930088042,
1.,1.13870188345,1.27566999335688),.UNSPECIFIED.);
#173=PRESENTATION_LAYER_ASSIGNMENT('1','Layer 1',(#262,#263,#172,#196,#197,
#198,#33));
#174=STYLED_ITEM('',(#181),#262);
#175=STYLED_ITEM('',(#182),#263);
#176=STYLED_ITEM('',(#183),#172);
#177=STYLED_ITEM('',(#184),#196);
#178=STYLED_ITEM('',(#185),#197);
#179=STYLED_ITEM('',(#186),#198);
#180=STYLED_ITEM('',(#187),#33);
#181=PRESENTATION_STYLE_ASSIGNMENT((#188));
#182=PRESENTATION_STYLE_ASSIGNMENT((#189));
#183=PRESENTATION_STYLE_ASSIGNMENT((#163));
#184=PRESENTATION_STYLE_ASSIGNMENT((#164));
#185=PRESENTATION_STYLE_ASSIGNMENT((#165));
#186=PRESENTATION_STYLE_ASSIGNMENT((#166));
#187=PRESENTATION_STYLE_ASSIGNMENT((#28));
#188=POINT_STYLE('',#190,POSITIVE_LENGTH_MEASURE(3.),#192);
#189=POINT_STYLE('',#191,POSITIVE_LENGTH_MEASURE(3.),#192);
#190=PRE_DEFINED_POINT_MARKER_SYMBOL('plus');
#191=PRE_DEFINED_POINT_MARKER_SYMBOL('plus');
#192=COLOUR_RGB('Dark Red Pink',0.8,0.,0.2);
#193=COLOUR_RGB('Dark Cyan Teal',0.,0.8,0.6);
#194=COLOUR_RGB('Pale Gray',0.8,0.8,0.8);
#195=AXIS2_PLACEMENT_3D('',#261,#213,#214);
#196=AXIS2_PLACEMENT_3D('',#319,#215,#216);
#197=AXIS2_PLACEMENT_3D('MCS',#320,#217,#218);
#198=AXIS2_PLACEMENT_3D('PCS',#321,#219,#220);
#199=AXIS2_PLACEMENT_3D('',#330,#225,#226);
#200=AXIS2_PLACEMENT_3D('',#331,#227,#228);
#201=AXIS2_PLACEMENT_3D('',#333,#229,#230);
#202=AXIS2_PLACEMENT_3D('',#336,#232,#233);
#203=AXIS2_PLACEMENT_3D('',#342,#237,#238);
#204=AXIS2_PLACEMENT_3D('',#351,#243,#244);
#205=AXIS2_PLACEMENT_3D('',#352,#245,#246);
#206=AXIS2_PLACEMENT_3D('',#353,#247,#248);
#207=AXIS2_PLACEMENT_3D('',#354,#249,#250);
#208=AXIS2_PLACEMENT_3D('',#355,#251,#252);
#209=AXIS2_PLACEMENT_3D('',#356,#253,#254);
#210=AXIS2_PLACEMENT_3D('',#357,#255,#256);
#211=AXIS2_PLACEMENT_3D('',#358,#257,#258);
#212=AXIS2_PLACEMENT_3D('',#359,#259,#260);
#213=DIRECTION('',(0.,0.,1.));
#214=DIRECTION('',(1.,0.,0.));
#215=DIRECTION('',(0.,0.,1.));
#216=DIRECTION('',(1.,0.,0.));
#217=DIRECTION('',(0.,0.,1.));
#218=DIRECTION('',(0.,-1.,0.));
#219=DIRECTION('',(0.,0.,1.));
#220=DIRECTION('',(0.,-1.,0.));
#221=DIRECTION('',(-0.190808995376545,0.,0.981627183447664));
#222=DIRECTION('',(0.,-1.,0.));
#223=DIRECTION('',(-0.190808995376545,2.4980018054066E-16,0.981627183447664));
#224=DIRECTION('',(0.,1.,0.));
#225=DIRECTION('',(-0.981627183447664,0.,-0.190808995376545));
#226=DIRECTION('',(-0.190808995376545,0.,0.981627183447664));
#227=DIRECTION('',(0.,0.,-1.));
#228=DIRECTION('',(-1.,0.,0.));
#229=DIRECTION('',(0.,0.,1.));
#230=DIRECTION('',(1.,0.,0.));
#231=DIRECTION('',(0.0954044976882723,0.165245437266675,0.981627183447664));
#232=DIRECTION('',(0.,0.,1.));
#233=DIRECTION('',(1.,0.,-2.67731358748034E-16));
#234=DIRECTION('',(0.0954044976882729,0.165245437266675,0.981627183447664));
#235=DIRECTION('',(-0.866025403784439,0.5,0.));
#236=DIRECTION('',(0.866025403784439,-0.5,0.));
#237=DIRECTION('',(0.490813591723832,0.850114077911045,-0.190808995376545));
#238=DIRECTION('',(0.0954044976882724,0.165245437266675,0.981627183447664));
#239=DIRECTION('',(0.0954044976882721,-0.165245437266675,0.981627183447664));
#240=DIRECTION('',(0.866025403784439,0.499999999999999,0.));
#241=DIRECTION('',(0.0954044976882719,-0.165245437266676,0.981627183447664));
#242=DIRECTION('',(-0.866025403784439,-0.499999999999999,0.));
#243=DIRECTION('',(0.490813591723831,-0.850114077911045,-0.190808995376545));
#244=DIRECTION('',(0.0954044976882722,-0.165245437266675,0.981627183447664));
#245=DIRECTION('',(0.,0.,-1.));
#246=DIRECTION('',(-1.,0.,0.));
#247=DIRECTION('',(0.,0.,1.));
#248=DIRECTION('',(1.,0.,0.));
#249=DIRECTION('',(0.,0.,1.));
#250=DIRECTION('',(-0.499999999999999,0.86602540378444,-2.67731358748034E-16));
#251=DIRECTION('',(0.,0.,-1.));
#252=DIRECTION('',(-1.,0.,0.));
#253=DIRECTION('',(0.,0.,1.));
#254=DIRECTION('',(1.,0.,0.));
#255=DIRECTION('',(0.,0.,1.));
#256=DIRECTION('',(-0.500000000000003,-0.866025403784437,-2.67731358748034E-16));
#257=DIRECTION('',(0.,0.,1.));
#258=DIRECTION('',(1.,0.,0.));
#259=DIRECTION('',(0.,0.,-1.));
#260=DIRECTION('',(-1.,0.,0.));
#261=CARTESIAN_POINT('',(0.,0.,0.));
#262=CARTESIAN_POINT('',(0.,0.,0.));
#263=CARTESIAN_POINT('',(-4.7625,8.24889197104677,0.));
#264=CARTESIAN_POINT('',(-3.06600979345012,7.26942289361764,0.));
#265=CARTESIAN_POINT('',(-1.19025,6.18645247193414,0.));
#266=CARTESIAN_POINT('',(2.358928125,4.13733352606345,0.));
#267=CARTESIAN_POINT('',(5.91926718750001,2.08177080992273,0.));
#268=CARTESIAN_POINT('',(7.70501718750001,1.05076756671735,0.));
#269=CARTESIAN_POINT('',(7.74994760935457,1.02507186945496,0.));
#270=CARTESIAN_POINT('',(7.8051516911499,0.990979884352814,0.));
#271=CARTESIAN_POINT('',(7.88967391597487,0.930398349115976,0.));
#272=CARTESIAN_POINT('',(8.02674680682829,0.810256031080949,0.));
#273=CARTESIAN_POINT('',(8.18628625423409,0.602341599788627,0.));
#274=CARTESIAN_POINT('',(8.30663360099227,0.311794683796741,0.));
#275=CARTESIAN_POINT('',(8.34768319948619,1.0318901288997E-10,0.));
#276=CARTESIAN_POINT('',(8.30663360106298,-0.311794683567421,0.));
#277=CARTESIAN_POINT('',(8.18628625434688,-0.602341599650803,0.));
#278=CARTESIAN_POINT('',(8.02674680669124,-0.81025603122532,0.));
#279=CARTESIAN_POINT('',(7.88967391591682,-0.930398349177972,0.));
#280=CARTESIAN_POINT('',(7.8051516911382,-0.990979884365396,0.));
#281=CARTESIAN_POINT('',(7.74994760935199,-1.02507186945582,0.));
#282=CARTESIAN_POINT('',(7.70501718749999,-1.05076756671739,0.));
#283=CARTESIAN_POINT('',(5.91926718749999,-2.08177080992276,0.));
#284=CARTESIAN_POINT('',(3.25180312499999,-3.62183190446078,0.));
#285=CARTESIAN_POINT('',(-0.275053125000009,-5.65806330979138,0.));
#286=CARTESIAN_POINT('',(-2.04964218750001,-6.68262278272672,0.));
#287=CARTESIAN_POINT('',(-2.94251718750001,-7.19812440432941,0.));
#288=CARTESIAN_POINT('',(-2.98723552500022,-7.22418744241336,0.));
#289=CARTESIAN_POINT('',(-3.04436209108604,-7.25494958710329,0.));
#290=CARTESIAN_POINT('',(-3.13908835201389,-7.29785721336767,0.));
#291=CARTESIAN_POINT('',(-3.31167109692848,-7.35649465999939,0.));
#292=CARTESIAN_POINT('',(-3.57149999994393,-7.39070265871239,0.));
#293=CARTESIAN_POINT('',(-3.88329468356321,-7.34965306028709,0.));
#294=CARTESIAN_POINT('',(-4.17384159965372,-7.2293057135512,0.));
#295=CARTESIAN_POINT('',(-4.4233389172658,-7.03785837666625,0.));
#296=CARTESIAN_POINT('',(-4.61478625422718,-6.78836105909036,0.));
#297=CARTESIAN_POINT('',(-4.7150757099563,-6.54623862872758,0.));
#298=CARTESIAN_POINT('',(-4.75058556398563,-6.36745886417044,0.));
#299=CARTESIAN_POINT('',(-4.76078960006889,-6.26396970273406,0.));
#300=CARTESIAN_POINT('',(-4.76271208432976,-6.19911557294857,0.));
#301=CARTESIAN_POINT('',(-4.7625,-6.14735683761204,0.));
#302=CARTESIAN_POINT('',(-4.7625,-4.08535035120129,0.));
#303=CARTESIAN_POINT('',(-4.7625,-1.00522816212524,0.));
#304=CARTESIAN_POINT('',(-4.7625,3.06723464853599,0.));
#305=CARTESIAN_POINT('',(-4.7625,5.11635359440667,0.));
#306=CARTESIAN_POINT('',(-4.7625,6.14735683761204,0.));
#307=CARTESIAN_POINT('',(-4.76271208433025,6.19911557295813,0.));
#308=CARTESIAN_POINT('',(-4.76078960006386,6.26396970275046,0.));
#309=CARTESIAN_POINT('',(-4.75058556396098,6.36745886425168,0.));
#310=CARTESIAN_POINT('',(-4.71507570989981,6.54623862891843,0.));
#311=CARTESIAN_POINT('',(-4.61478625429017,6.78836105892375,0.));
#312=CARTESIAN_POINT('',(-4.42333891742907,7.03785837649033,0.));
#313=CARTESIAN_POINT('',(-4.17384159983248,7.229305713448,0.));
#314=CARTESIAN_POINT('',(-3.88329468379719,7.34965306023365,0.));
#315=CARTESIAN_POINT('',(-3.57150000011971,7.39070265874114,0.));
#316=CARTESIAN_POINT('',(-3.25970531605801,7.34965306019524,0.));
#317=CARTESIAN_POINT('',(-3.06600979345012,7.26942289361764,0.));
#318=CARTESIAN_POINT('',(-1.19025,6.18645247193414,0.));
#319=CARTESIAN_POINT('',(0.,0.,0.));
#320=CARTESIAN_POINT('',(0.,0.,0.));
#321=CARTESIAN_POINT('',(-4.7625,8.24889197104677,0.));
#322=CARTESIAN_POINT('',(-3.5715,6.18601945923224,-6.12716383302064));
#323=CARTESIAN_POINT('',(-4.14437061694206,6.18601945923224,-3.18));
#324=CARTESIAN_POINT('',(-4.7625,6.18601945923224,0.));
#325=CARTESIAN_POINT('',(-4.14437061694206,-16.,-3.18));
#326=CARTESIAN_POINT('',(-4.14437061694206,-6.18601945923224,-3.18));
#327=CARTESIAN_POINT('',(-3.57150000000001,-6.18601945923224,-6.12716383302064));
#328=CARTESIAN_POINT('',(-4.76250000000001,-6.18601945923224,0.));
#329=CARTESIAN_POINT('',(-4.7625,-16.,0.));
#330=CARTESIAN_POINT('',(-4.7625,-16.,0.));
#331=CARTESIAN_POINT('',(-3.5715,6.18601945923224,-3.18));
#332=CARTESIAN_POINT('',(-3.28506469152897,6.68213996658573,-3.18));
#333=CARTESIAN_POINT('',(-3.5715,6.18601945923224,0.));
#334=CARTESIAN_POINT('',(-2.976,7.21745571513951,0.));
#335=CARTESIAN_POINT('',(-3.5715,6.18601945923224,-6.12716383302064));
#336=CARTESIAN_POINT('',(-3.5715,6.18601945923224,-6.12716383302065));
#337=CARTESIAN_POINT('',(7.143,-2.16840434497101E-14,-6.12716383302064));
#338=CARTESIAN_POINT('',(7.42943530847103,0.496120507353462,-3.18));
#339=CARTESIAN_POINT('',(7.7385,1.03143625590724,0.));
#340=CARTESIAN_POINT('',(15.9285917690221,-4.41086976303039,-3.18));
#341=CARTESIAN_POINT('',(16.237656460551,-3.87555401447661,0.));
#342=CARTESIAN_POINT('',(16.237656460551,-3.87555401447661,0.));
#343=CARTESIAN_POINT('',(-3.57150000000001,-6.18601945923224,-6.12716383302064));
#344=CARTESIAN_POINT('',(-3.28506469152898,-6.68213996658572,-3.18));
#345=CARTESIAN_POINT('',(-2.97600000000001,-7.21745571513951,0.));
#346=CARTESIAN_POINT('',(15.9285917690221,4.41086976303037,-3.18));
#347=CARTESIAN_POINT('',(7.42943530847103,-0.496120507353507,-3.18));
#348=CARTESIAN_POINT('',(7.143,-2.12503625807159E-14,-6.12716383302064));
#349=CARTESIAN_POINT('',(7.7385,-1.03143625590729,0.));
#350=CARTESIAN_POINT('',(16.237656460551,3.87555401447659,0.));
#351=CARTESIAN_POINT('',(16.237656460551,3.87555401447659,0.));
#352=CARTESIAN_POINT('',(-3.57150000000001,-6.18601945923224,-3.18));
#353=CARTESIAN_POINT('',(-3.57150000000001,-6.18601945923224,0.));
#354=CARTESIAN_POINT('',(-3.57150000000001,-6.18601945923224,-6.12716383302065));
#355=CARTESIAN_POINT('',(7.143,-2.08166817117217E-14,-3.18));
#356=CARTESIAN_POINT('',(7.143,-2.08166817117217E-14,0.));
#357=CARTESIAN_POINT('',(7.143,-2.08166817117217E-14,-6.12716383302065));
#358=CARTESIAN_POINT('',(0.,0.,0.));
#359=CARTESIAN_POINT('',(0.,0.,-3.18));
#360=MECHANICAL_DESIGN_GEOMETRIC_PRESENTATION_REPRESENTATION('',(#174,#175,
#176,#177,#178,#179,#180),#361);
#361=(
GEOMETRIC_REPRESENTATION_CONTEXT(3)
GLOBAL_UNCERTAINTY_ASSIGNED_CONTEXT((#362))
GLOBAL_UNIT_ASSIGNED_CONTEXT((#368,#364,#363))
REPRESENTATION_CONTEXT('aaa336266_a','TOP_LEVEL_ASSEMBLY_PART')
);
#362=UNCERTAINTY_MEASURE_WITH_UNIT(LENGTH_MEASURE(2.E-5),#368,
'DISTANCE_ACCURACY_VALUE','Maximum Tolerance applied to model');
#363=(
NAMED_UNIT(*)
SI_UNIT($,.STERADIAN.)
SOLID_ANGLE_UNIT()
);
#364=(
CONVERSION_BASED_UNIT('DEGREE',#366)
NAMED_UNIT(#365)
PLANE_ANGLE_UNIT()
);
#365=DIMENSIONAL_EXPONENTS(0.,0.,0.,0.,0.,0.,0.);
#366=PLANE_ANGLE_MEASURE_WITH_UNIT(PLANE_ANGLE_MEASURE(0.0174532925),#367);
#367=(
NAMED_UNIT(*)
PLANE_ANGLE_UNIT()
SI_UNIT($,.RADIAN.)
);
#368=(
LENGTH_UNIT()
NAMED_UNIT(*)
SI_UNIT(.MILLI.,.METRE.)
);
ENDSEC;
END-ISO-10303-21;
