ISO-10303-21;
HEADER;
/* Generated by software containing ST-Developer
 * from STEP Tools, Inc. (www.steptools.com) 
 */
/* OPTION: using custom schema-name function */

FILE_DESCRIPTION(
/* description */ (''),
/* implementation_level */ '2;1');

FILE_NAME(
/* name */ '7057_1_3d.stp',
/* time_stamp */ '2019-08-29T13:24:00+02:00',
/* author */ (''),
/* organization */ ('SMS'),
/* preprocessor_version */ 'ST-DEVELOPER v16.7',
/* originating_system */ 'SIEMENS PLM Software NX 12.0',
/* authorisation */ '');

FILE_SCHEMA (('AUTOMOTIVE_DESIGN { 1 0 10303 214 3 1 1 1 }'));
ENDSEC;

DATA;
#10=CONSTRUCTIVE_GEOMETRY_REPRESENTATION_RELATIONSHIP(
'supplemental geometry','',#24,#11);
#11=CONSTRUCTIVE_GEOMETRY_REPRESENTATION('supplemental geometry',(#96,#97,
#98),#152);
#12=SHAPE_REPRESENTATION_RELATIONSHIP('None',
'relationship between 7057_1_3D-None and 7057_1_3D-None',#24,#13);
#13=ADVANCED_BREP_SHAPE_REPRESENTATION('7057_1_3D-None',(#30),#152);
#14=SHAPE_DEFINITION_REPRESENTATION(#15,#24);
#15=PRODUCT_DEFINITION_SHAPE('','',#16);
#16=PRODUCT_DEFINITION(' ','',#18,#17);
#17=PRODUCT_DEFINITION_CONTEXT('part definition',#23,'design');
#18=PRODUCT_DEFINITION_FORMATION_WITH_SPECIFIED_SOURCE(' ',' ',#20,
 .NOT_KNOWN.);
#19=PRODUCT_RELATED_PRODUCT_CATEGORY('part','',(#20));
#20=PRODUCT('7057_1_3D','7057_1_3D',' ',(#21));
#21=PRODUCT_CONTEXT(' ',#23,'mechanical');
#22=APPLICATION_PROTOCOL_DEFINITION('international standard',
'automotive_design',2010,#23);
#23=APPLICATION_CONTEXT(
'core data for automotive mechanical design processes');
#24=SHAPE_REPRESENTATION('7057_1_3D-None',(#95),#152);
#25=SURFACE_STYLE_USAGE(.BOTH.,#26);
#26=SURFACE_SIDE_STYLE('',(#27));
#27=SURFACE_STYLE_FILL_AREA(#28);
#28=FILL_AREA_STYLE('',(#29));
#29=FILL_AREA_STYLE_COLOUR('',#91);
#30=MANIFOLD_SOLID_BREP('NOCUT',#31);
#31=CLOSED_SHELL('',(#40,#41,#42,#43,#44));
#32=CYLINDRICAL_SURFACE('',#104,8.);
#33=CYLINDRICAL_SURFACE('',#107,6.);
#34=FACE_BOUND('',#52,.T.);
#35=FACE_BOUND('',#53,.T.);
#36=FACE_BOUND('',#54,.T.);
#37=FACE_BOUND('',#55,.T.);
#38=FACE_BOUND('',#56,.T.);
#39=FACE_BOUND('',#57,.T.);
#40=ADVANCED_FACE('',(#48),#45,.F.);
#41=ADVANCED_FACE('',(#49),#46,.F.);
#42=ADVANCED_FACE('',(#34,#35),#32,.T.);
#43=ADVANCED_FACE('',(#36,#37),#47,.F.);
#44=ADVANCED_FACE('',(#38,#39),#33,.T.);
#45=PLANE('',#100);
#46=PLANE('',#102);
#47=PLANE('',#106);
#48=FACE_OUTER_BOUND('',#50,.T.);
#49=FACE_OUTER_BOUND('',#51,.T.);
#50=EDGE_LOOP('',(#58));
#51=EDGE_LOOP('',(#59));
#52=EDGE_LOOP('',(#60));
#53=EDGE_LOOP('',(#61));
#54=EDGE_LOOP('',(#62));
#55=EDGE_LOOP('',(#63));
#56=EDGE_LOOP('',(#64));
#57=EDGE_LOOP('',(#65));
#58=ORIENTED_EDGE('',*,*,#70,.T.);
#59=ORIENTED_EDGE('',*,*,#71,.F.);
#60=ORIENTED_EDGE('',*,*,#72,.F.);
#61=ORIENTED_EDGE('',*,*,#71,.T.);
#62=ORIENTED_EDGE('',*,*,#73,.F.);
#63=ORIENTED_EDGE('',*,*,#72,.T.);
#64=ORIENTED_EDGE('',*,*,#70,.F.);
#65=ORIENTED_EDGE('',*,*,#73,.T.);
#66=VERTEX_POINT('',#139);
#67=VERTEX_POINT('',#142);
#68=VERTEX_POINT('',#145);
#69=VERTEX_POINT('',#148);
#70=EDGE_CURVE('',#66,#66,#74,.T.);
#71=EDGE_CURVE('',#67,#67,#75,.T.);
#72=EDGE_CURVE('',#68,#68,#76,.T.);
#73=EDGE_CURVE('',#69,#69,#77,.T.);
#74=CIRCLE('',#99,6.);
#75=CIRCLE('',#101,8.);
#76=CIRCLE('',#103,8.);
#77=CIRCLE('',#105,6.);
#78=PRESENTATION_LAYER_ASSIGNMENT('1','Layer 1',(#96,#97,#98,#30));
#79=STYLED_ITEM('',(#83),#96);
#80=STYLED_ITEM('',(#84),#97);
#81=STYLED_ITEM('',(#85),#98);
#82=STYLED_ITEM('',(#86),#30);
#83=PRESENTATION_STYLE_ASSIGNMENT((#87));
#84=PRESENTATION_STYLE_ASSIGNMENT((#88));
#85=PRESENTATION_STYLE_ASSIGNMENT((#89));
#86=PRESENTATION_STYLE_ASSIGNMENT((#25));
#87=CURVE_STYLE('',#92,POSITIVE_LENGTH_MEASURE(0.13),#90);
#88=CURVE_STYLE('',#93,POSITIVE_LENGTH_MEASURE(0.13),#90);
#89=CURVE_STYLE('',#94,POSITIVE_LENGTH_MEASURE(0.13),#90);
#90=COLOUR_RGB('Deep Blue',0.,0.,0.752941176470588);
#91=COLOUR_RGB('TLS_NOCUT',0.499992370489052,0.499992370489052,0.499992370489052);
#92=DRAUGHTING_PRE_DEFINED_CURVE_FONT('continuous');
#93=DRAUGHTING_PRE_DEFINED_CURVE_FONT('continuous');
#94=DRAUGHTING_PRE_DEFINED_CURVE_FONT('continuous');
#95=AXIS2_PLACEMENT_3D('',#134,#108,#109);
#96=AXIS2_PLACEMENT_3D('PCS',#135,#110,#111);
#97=AXIS2_PLACEMENT_3D('MCS',#136,#112,#113);
#98=AXIS2_PLACEMENT_3D('CSW',#137,#114,#115);
#99=AXIS2_PLACEMENT_3D('',#138,#116,#117);
#100=AXIS2_PLACEMENT_3D('',#140,#118,#119);
#101=AXIS2_PLACEMENT_3D('',#141,#120,#121);
#102=AXIS2_PLACEMENT_3D('',#143,#122,#123);
#103=AXIS2_PLACEMENT_3D('',#144,#124,#125);
#104=AXIS2_PLACEMENT_3D('',#146,#126,#127);
#105=AXIS2_PLACEMENT_3D('',#147,#128,#129);
#106=AXIS2_PLACEMENT_3D('',#149,#130,#131);
#107=AXIS2_PLACEMENT_3D('',#150,#132,#133);
#108=DIRECTION('',(0.,0.,1.));
#109=DIRECTION('',(1.,0.,0.));
#110=DIRECTION('',(0.,0.,-1.));
#111=DIRECTION('',(-1.,0.,0.));
#112=DIRECTION('',(0.,0.,-1.));
#113=DIRECTION('',(-1.,0.,0.));
#114=DIRECTION('',(0.,0.,-1.));
#115=DIRECTION('',(-1.,0.,0.));
#116=DIRECTION('',(0.,0.,-1.));
#117=DIRECTION('',(-1.,0.,0.));
#118=DIRECTION('',(0.,0.,1.));
#119=DIRECTION('',(1.,0.,0.));
#120=DIRECTION('',(0.,0.,-1.));
#121=DIRECTION('',(-1.,0.,0.));
#122=DIRECTION('',(0.,0.,-1.));
#123=DIRECTION('',(-1.,0.,0.));
#124=DIRECTION('',(0.,0.,-1.));
#125=DIRECTION('',(-1.,0.,0.));
#126=DIRECTION('',(0.,0.,-1.));
#127=DIRECTION('',(-1.,0.,0.));
#128=DIRECTION('',(0.,0.,-1.));
#129=DIRECTION('',(-1.,0.,0.));
#130=DIRECTION('',(0.,0.,1.));
#131=DIRECTION('',(1.,0.,0.));
#132=DIRECTION('',(0.,0.,-1.));
#133=DIRECTION('',(-1.,0.,0.));
#134=CARTESIAN_POINT('',(0.,0.,0.));
#135=CARTESIAN_POINT('',(0.,0.,0.));
#136=CARTESIAN_POINT('',(0.,0.,0.));
#137=CARTESIAN_POINT('',(0.,0.,4.));
#138=CARTESIAN_POINT('',(0.,0.,-40.));
#139=CARTESIAN_POINT('',(-6.,0.,-40.));
#140=CARTESIAN_POINT('',(6.,0.,-40.));
#141=CARTESIAN_POINT('',(0.,0.,4.));
#142=CARTESIAN_POINT('',(-8.,0.,4.));
#143=CARTESIAN_POINT('',(0.,0.,4.));
#144=CARTESIAN_POINT('',(0.,0.,0.));
#145=CARTESIAN_POINT('',(-8.,0.,0.));
#146=CARTESIAN_POINT('',(0.,0.,0.));
#147=CARTESIAN_POINT('',(0.,0.,0.));
#148=CARTESIAN_POINT('',(-6.,0.,0.));
#149=CARTESIAN_POINT('',(8.,0.,0.));
#150=CARTESIAN_POINT('',(0.,0.,0.));
#151=MECHANICAL_DESIGN_GEOMETRIC_PRESENTATION_REPRESENTATION('',(#79,#80,
#81,#82),#152);
#152=(
GEOMETRIC_REPRESENTATION_CONTEXT(3)
GLOBAL_UNCERTAINTY_ASSIGNED_CONTEXT((#153))
GLOBAL_UNIT_ASSIGNED_CONTEXT((#159,#155,#154))
REPRESENTATION_CONTEXT('7057_1_3d','TOP_LEVEL_ASSEMBLY_PART')
);
#153=UNCERTAINTY_MEASURE_WITH_UNIT(LENGTH_MEASURE(2.E-5),#159,
'DISTANCE_ACCURACY_VALUE','Maximum Tolerance applied to model');
#154=(
NAMED_UNIT(*)
SI_UNIT($,.STERADIAN.)
SOLID_ANGLE_UNIT()
);
#155=(
CONVERSION_BASED_UNIT('DEGREE',#157)
NAMED_UNIT(#156)
PLANE_ANGLE_UNIT()
);
#156=DIMENSIONAL_EXPONENTS(0.,0.,0.,0.,0.,0.,0.);
#157=PLANE_ANGLE_MEASURE_WITH_UNIT(PLANE_ANGLE_MEASURE(0.0174532925),#158);
#158=(
NAMED_UNIT(*)
PLANE_ANGLE_UNIT()
SI_UNIT($,.RADIAN.)
);
#159=(
LENGTH_UNIT()
NAMED_UNIT(*)
SI_UNIT(.MILLI.,.METRE.)
);
ENDSEC;
END-ISO-10303-21;
