ISO-10303-21;
HEADER;
/* Generated by software containing ST-Developer
 * from STEP Tools, Inc. (www.steptools.com) 
 */
/* OPTION: using custom schema-name function */

FILE_DESCRIPTION(
/* description */ (''),
/* implementation_level */ '2;1');

FILE_NAME(
/* name */ '1590648956893.stp',
/* time_stamp */ '2020-05-28T12:26:16+06:00',
/* author */ (''),
/* organization */ ('SMS'),
/* preprocessor_version */ 'ST-DEVELOPER v16.7',
/* originating_system */ 'SIEMENS PLM Software NX 12.0',
/* authorisation */ '');

FILE_SCHEMA (('AUTOMOTIVE_DESIGN { 1 0 10303 214 3 1 1 1 }'));
ENDSEC;

DATA;
#10=CONTEXT_DEPENDENT_SHAPE_REPRESENTATION(#16,#50);
#11=CONTEXT_DEPENDENT_SHAPE_REPRESENTATION(#17,#51);
#12=CONTEXT_DEPENDENT_SHAPE_REPRESENTATION(#18,#52);
#13=NEXT_ASSEMBLY_USAGE_OCCURRENCE('1001',' ',
'NXMOD-TM01_00-000-00-R216F_16A20S_100_PP_BAS',#56,#55,$);
#14=NEXT_ASSEMBLY_USAGE_OCCURRENCE('1002',' ',
'NXMOD-TM01_00-000-00-MI_R216F_1640_R1_BAS',#56,#54,$);
#15=NEXT_ASSEMBLY_USAGE_OCCURRENCE('1003',' ',
'NXMOD-TM01_00-000-00-R216F_16A20S_100_ACN_BAS',#56,#53,$);
#16=(
REPRESENTATION_RELATIONSHIP(' ',' ',#81,#82)
REPRESENTATION_RELATIONSHIP_WITH_TRANSFORMATION(#19)
SHAPE_REPRESENTATION_RELATIONSHIP()
);
#17=(
REPRESENTATION_RELATIONSHIP(' ',' ',#80,#82)
REPRESENTATION_RELATIONSHIP_WITH_TRANSFORMATION(#20)
SHAPE_REPRESENTATION_RELATIONSHIP()
);
#18=(
REPRESENTATION_RELATIONSHIP(' ',' ',#79,#82)
REPRESENTATION_RELATIONSHIP_WITH_TRANSFORMATION(#21)
SHAPE_REPRESENTATION_RELATIONSHIP()
);
#19=ITEM_DEFINED_TRANSFORMATION(' ',' ',#289,#318);
#20=ITEM_DEFINED_TRANSFORMATION(' ',' ',#289,#319);
#21=ITEM_DEFINED_TRANSFORMATION(' ',' ',#289,#320);
#22=ADVANCED_BREP_SHAPE_REPRESENTATION('202455403mod000_00-None',(#102),
#454);
#23=ADVANCED_BREP_SHAPE_REPRESENTATION('202460781mod000_00-None',(#101),
#453);
#24=CONSTRUCTIVE_GEOMETRY_REPRESENTATION_RELATIONSHIP(
'supplemental geometry','',#79,#28);
#25=CONSTRUCTIVE_GEOMETRY_REPRESENTATION_RELATIONSHIP(
'supplemental geometry','',#80,#29);
#26=CONSTRUCTIVE_GEOMETRY_REPRESENTATION_RELATIONSHIP(
'supplemental geometry','',#81,#30);
#27=CONSTRUCTIVE_GEOMETRY_REPRESENTATION_RELATIONSHIP(
'supplemental geometry','',#82,#31);
#28=CONSTRUCTIVE_GEOMETRY_REPRESENTATION('supplemental geometry',(#317),
#455);
#29=CONSTRUCTIVE_GEOMETRY_REPRESENTATION('supplemental geometry',(#311,
#312,#313),#454);
#30=CONSTRUCTIVE_GEOMETRY_REPRESENTATION('supplemental geometry',(#291,
#292,#293),#453);
#31=CONSTRUCTIVE_GEOMETRY_REPRESENTATION('supplemental geometry',(#290),
#452);
#32=SHAPE_REPRESENTATION_RELATIONSHIP('None',
'relationship between 202460780mod000_00-None and 202460780mod000_00-N
one',#79,#38);
#33=SHAPE_REPRESENTATION_RELATIONSHIP('None',
'relationship between 202455403mod000_00-None and 202455403mod000_00-N
one',#80,#22);
#34=SHAPE_REPRESENTATION_RELATIONSHIP('None',
'relationship between 202455403mod000_00-None and 202455403mod000_00-N
one',#80,#39);
#35=SHAPE_REPRESENTATION_RELATIONSHIP('None',
'relationship between 202460781mod000_00-None and 202460781mod000_00-N
one',#81,#23);
#36=SHAPE_REPRESENTATION_RELATIONSHIP('None',
'relationship between 202460781mod000_00-None and 202460781mod000_00-N
one',#81,#40);
#37=SHAPE_REPRESENTATION_RELATIONSHIP('None',
'relationship between 202460779mod000_00-None and 202460779mod000_00-N
one',#82,#41);
#38=GEOMETRICALLY_BOUNDED_WIREFRAME_SHAPE_REPRESENTATION(
'202460780mod000_00-None',(#83),#455);
#39=GEOMETRICALLY_BOUNDED_WIREFRAME_SHAPE_REPRESENTATION(
'202455403mod000_00-None',(#84),#454);
#40=GEOMETRICALLY_BOUNDED_WIREFRAME_SHAPE_REPRESENTATION(
'202460781mod000_00-None',(#85),#453);
#41=GEOMETRICALLY_BOUNDED_WIREFRAME_SHAPE_REPRESENTATION(
'202460779mod000_00-None',(#86),#452);
#42=SHAPE_DEFINITION_REPRESENTATION(#46,#79);
#43=SHAPE_DEFINITION_REPRESENTATION(#47,#80);
#44=SHAPE_DEFINITION_REPRESENTATION(#48,#81);
#45=SHAPE_DEFINITION_REPRESENTATION(#49,#82);
#46=PRODUCT_DEFINITION_SHAPE('','',#53);
#47=PRODUCT_DEFINITION_SHAPE('','',#54);
#48=PRODUCT_DEFINITION_SHAPE('','',#55);
#49=PRODUCT_DEFINITION_SHAPE('','',#56);
#50=PRODUCT_DEFINITION_SHAPE(' ','NAUO PRDDFN',#13);
#51=PRODUCT_DEFINITION_SHAPE(' ','NAUO PRDDFN',#14);
#52=PRODUCT_DEFINITION_SHAPE(' ','NAUO PRDDFN',#15);
#53=PRODUCT_DEFINITION(' ','',#61,#57);
#54=PRODUCT_DEFINITION(' ','',#62,#58);
#55=PRODUCT_DEFINITION(' ','',#63,#59);
#56=PRODUCT_DEFINITION(' ','',#64,#60);
#57=PRODUCT_DEFINITION_CONTEXT('part definition',#78,'design');
#58=PRODUCT_DEFINITION_CONTEXT('part definition',#78,'design');
#59=PRODUCT_DEFINITION_CONTEXT('part definition',#78,'design');
#60=PRODUCT_DEFINITION_CONTEXT('part definition',#78,'design');
#61=PRODUCT_DEFINITION_FORMATION_WITH_SPECIFIED_SOURCE(' ',' ',#69,
 .NOT_KNOWN.);
#62=PRODUCT_DEFINITION_FORMATION_WITH_SPECIFIED_SOURCE(' ',' ',#70,
 .NOT_KNOWN.);
#63=PRODUCT_DEFINITION_FORMATION_WITH_SPECIFIED_SOURCE(' ',' ',#71,
 .NOT_KNOWN.);
#64=PRODUCT_DEFINITION_FORMATION_WITH_SPECIFIED_SOURCE(' ',' ',#72,
 .NOT_KNOWN.);
#65=PRODUCT_RELATED_PRODUCT_CATEGORY('part','',(#69));
#66=PRODUCT_RELATED_PRODUCT_CATEGORY('part','',(#70));
#67=PRODUCT_RELATED_PRODUCT_CATEGORY('part','',(#71));
#68=PRODUCT_RELATED_PRODUCT_CATEGORY('part','',(#72));
#69=PRODUCT('ASSEMBLY_CONSTRUCTION','202460780mod000_00',' ',(#73));
#70=PRODUCT('202455403mod000_00','202455403mod000_00','MASTER_INSERT',(#74));
#71=PRODUCT('202460781mod000_00','202460781mod000_00','NOCUT',(#75));
#72=PRODUCT('202460779mod000_00','202460779mod000_00',' ',(#76));
#73=PRODUCT_CONTEXT(' ',#78,'mechanical');
#74=PRODUCT_CONTEXT(' ',#78,'mechanical');
#75=PRODUCT_CONTEXT(' ',#78,'mechanical');
#76=PRODUCT_CONTEXT(' ',#78,'mechanical');
#77=APPLICATION_PROTOCOL_DEFINITION('international standard',
'automotive_design',2010,#78);
#78=APPLICATION_CONTEXT(
'core data for automotive mechanical design processes');
#79=SHAPE_REPRESENTATION('202460780mod000_00-None',(#289),#455);
#80=SHAPE_REPRESENTATION('202455403mod000_00-None',(#289),#454);
#81=SHAPE_REPRESENTATION('202460781mod000_00-None',(#289),#453);
#82=SHAPE_REPRESENTATION('202460779mod000_00-None',(#289,#318,#319,#320),
#452);
#83=GEOMETRIC_CURVE_SET('None',(#442,#443));
#84=GEOMETRIC_CURVE_SET('None',(#419,#420,#421,#89));
#85=GEOMETRIC_CURVE_SET('None',(#388,#389,#390));
#86=GEOMETRIC_CURVE_SET('None',(#386));
#87=DRAUGHTING_PRE_DEFINED_COLOUR('blue');
#88=DRAUGHTING_PRE_DEFINED_COLOUR('white');
#89=TRIMMED_CURVE('CUTTING EDGE LINE',#90,(PARAMETER_VALUE(0.)),(
PARAMETER_VALUE(1.)),.T.,.PARAMETER.);
#90=(
BOUNDED_CURVE()
B_SPLINE_CURVE(3,(#422,#423,#424,#425,#426,#427,#428,#429,#430,#431,#432,
#433,#434),.UNSPECIFIED.,.T.,.F.)
B_SPLINE_CURVE_WITH_KNOTS((4,3,3,3,4),(0.,0.194219722092848,0.242497131983538,
0.663741751199388,1.),.UNSPECIFIED.)
CURVE()
GEOMETRIC_REPRESENTATION_ITEM()
RATIONAL_B_SPLINE_CURVE((1.,1.,1.,1.,0.996140396069082,0.996140396069082,
1.,0.726869726099239,0.726869726099239,1.,1.,1.,1.))
REPRESENTATION_ITEM('CUTTING EDGE LINE')
);
#91=SURFACE_STYLE_USAGE(.BOTH.,#93);
#92=SURFACE_STYLE_USAGE(.BOTH.,#94);
#93=SURFACE_SIDE_STYLE('',(#95));
#94=SURFACE_SIDE_STYLE('',(#96));
#95=SURFACE_STYLE_FILL_AREA(#97);
#96=SURFACE_STYLE_FILL_AREA(#98);
#97=FILL_AREA_STYLE('',(#99));
#98=FILL_AREA_STYLE('',(#100));
#99=FILL_AREA_STYLE_COLOUR('',#287);
#100=FILL_AREA_STYLE_COLOUR('',#288);
#101=MANIFOLD_SOLID_BREP('NOCUT',#103);
#102=MANIFOLD_SOLID_BREP('CUT',#104);
#103=CLOSED_SHELL('',(#127,#128,#129,#130,#131,#132,#133,#134,#135));
#104=CLOSED_SHELL('',(#136,#137));
#105=SPHERICAL_SURFACE('',#310,7.0625);
#106=SPHERICAL_SURFACE('',#315,7.99599999999274);
#107=TOROIDAL_SURFACE('',#306,12.0625,5.);
#108=TOROIDAL_SURFACE('',#307,10.4605209273461,2.);
#109=CONICAL_SURFACE('',#301,7.0625,1.16791434226217);
#110=CONICAL_SURFACE('',#305,8.49749999999999,44.9999999999997);
#111=CYLINDRICAL_SURFACE('',#298,7.0625);
#112=CYLINDRICAL_SURFACE('',#304,10.1125);
#113=FACE_BOUND('',#146,.T.);
#114=FACE_BOUND('',#147,.T.);
#115=FACE_BOUND('',#148,.T.);
#116=FACE_BOUND('',#149,.T.);
#117=FACE_BOUND('',#150,.T.);
#118=FACE_BOUND('',#151,.T.);
#119=FACE_BOUND('',#152,.T.);
#120=FACE_BOUND('',#153,.T.);
#121=FACE_BOUND('',#154,.T.);
#122=FACE_BOUND('',#155,.T.);
#123=FACE_BOUND('',#156,.T.);
#124=FACE_BOUND('',#157,.T.);
#125=FACE_BOUND('',#159,.T.);
#126=FACE_BOUND('',#160,.T.);
#127=ADVANCED_FACE('',(#141),#138,.T.);
#128=ADVANCED_FACE('',(#113,#114),#111,.T.);
#129=ADVANCED_FACE('',(#115,#116),#109,.T.);
#130=ADVANCED_FACE('',(#117,#118),#112,.T.);
#131=ADVANCED_FACE('',(#119,#120),#110,.T.);
#132=ADVANCED_FACE('',(#121,#122),#107,.F.);
#133=ADVANCED_FACE('',(#123,#124),#108,.F.);
#134=ADVANCED_FACE('',(#142),#139,.F.);
#135=ADVANCED_FACE('',(#125,#126),#105,.T.);
#136=ADVANCED_FACE('',(#143),#106,.T.);
#137=ADVANCED_FACE('',(#144),#140,.T.);
#138=PLANE('',#295);
#139=PLANE('',#309);
#140=PLANE('',#316);
#141=FACE_OUTER_BOUND('',#145,.T.);
#142=FACE_OUTER_BOUND('',#158,.T.);
#143=FACE_OUTER_BOUND('',#161,.T.);
#144=FACE_OUTER_BOUND('',#162,.T.);
#145=EDGE_LOOP('',(#163));
#146=EDGE_LOOP('',(#164));
#147=EDGE_LOOP('',(#165));
#148=EDGE_LOOP('',(#166));
#149=EDGE_LOOP('',(#167));
#150=EDGE_LOOP('',(#168));
#151=EDGE_LOOP('',(#169));
#152=EDGE_LOOP('',(#170));
#153=EDGE_LOOP('',(#171));
#154=EDGE_LOOP('',(#172));
#155=EDGE_LOOP('',(#173));
#156=EDGE_LOOP('',(#174));
#157=EDGE_LOOP('',(#175));
#158=EDGE_LOOP('',(#176));
#159=EDGE_LOOP('',(#177));
#160=EDGE_LOOP('',(#178));
#161=EDGE_LOOP('',(#179));
#162=EDGE_LOOP('',(#180));
#163=ORIENTED_EDGE('',*,*,#190,.T.);
#164=ORIENTED_EDGE('',*,*,#191,.T.);
#165=ORIENTED_EDGE('',*,*,#192,.T.);
#166=ORIENTED_EDGE('',*,*,#193,.T.);
#167=ORIENTED_EDGE('',*,*,#194,.T.);
#168=ORIENTED_EDGE('',*,*,#195,.F.);
#169=ORIENTED_EDGE('',*,*,#196,.T.);
#170=ORIENTED_EDGE('',*,*,#195,.T.);
#171=ORIENTED_EDGE('',*,*,#190,.F.);
#172=ORIENTED_EDGE('',*,*,#191,.F.);
#173=ORIENTED_EDGE('',*,*,#194,.F.);
#174=ORIENTED_EDGE('',*,*,#193,.F.);
#175=ORIENTED_EDGE('',*,*,#196,.F.);
#176=ORIENTED_EDGE('',*,*,#197,.F.);
#177=ORIENTED_EDGE('',*,*,#197,.T.);
#178=ORIENTED_EDGE('',*,*,#192,.F.);
#179=ORIENTED_EDGE('',*,*,#198,.T.);
#180=ORIENTED_EDGE('',*,*,#198,.F.);
#181=VERTEX_POINT('',#395);
#182=VERTEX_POINT('',#398);
#183=VERTEX_POINT('',#400);
#184=VERTEX_POINT('',#403);
#185=VERTEX_POINT('',#405);
#186=VERTEX_POINT('',#408);
#187=VERTEX_POINT('',#410);
#188=VERTEX_POINT('',#416);
#189=VERTEX_POINT('',#439);
#190=EDGE_CURVE('',#181,#181,#199,.T.);
#191=EDGE_CURVE('',#182,#182,#200,.T.);
#192=EDGE_CURVE('',#183,#183,#201,.T.);
#193=EDGE_CURVE('',#184,#184,#202,.T.);
#194=EDGE_CURVE('',#185,#185,#203,.T.);
#195=EDGE_CURVE('',#186,#186,#204,.T.);
#196=EDGE_CURVE('',#187,#187,#205,.T.);
#197=EDGE_CURVE('',#188,#188,#206,.T.);
#198=EDGE_CURVE('',#189,#189,#207,.T.);
#199=CIRCLE('',#294,8.49749999999999);
#200=CIRCLE('',#296,7.0625);
#201=CIRCLE('',#297,7.0625);
#202=CIRCLE('',#299,8.46093641840351);
#203=CIRCLE('',#300,7.06353872764347);
#204=CIRCLE('',#302,10.1125);
#205=CIRCLE('',#303,10.1125);
#206=CIRCLE('',#308,4.43045214961182);
#207=CIRCLE('',#314,6.92618190275133);
#208=CURVE_STYLE('',#217,POSITIVE_LENGTH_MEASURE(0.18),#286);
#209=CURVE_STYLE('',#218,POSITIVE_LENGTH_MEASURE(0.18),#286);
#210=CURVE_STYLE('',#219,POSITIVE_LENGTH_MEASURE(0.18),#286);
#211=CURVE_STYLE('',#220,POSITIVE_LENGTH_MEASURE(0.18),#286);
#212=CURVE_STYLE('',#221,POSITIVE_LENGTH_MEASURE(0.18),#87);
#213=CURVE_STYLE('',#222,POSITIVE_LENGTH_MEASURE(0.18),#286);
#214=CURVE_STYLE('',#223,POSITIVE_LENGTH_MEASURE(0.18),#286);
#215=CURVE_STYLE('',#224,POSITIVE_LENGTH_MEASURE(0.18),#286);
#216=CURVE_STYLE('',#225,POSITIVE_LENGTH_MEASURE(0.18),#286);
#217=DRAUGHTING_PRE_DEFINED_CURVE_FONT('continuous');
#218=DRAUGHTING_PRE_DEFINED_CURVE_FONT('continuous');
#219=DRAUGHTING_PRE_DEFINED_CURVE_FONT('continuous');
#220=DRAUGHTING_PRE_DEFINED_CURVE_FONT('continuous');
#221=DRAUGHTING_PRE_DEFINED_CURVE_FONT('continuous');
#222=DRAUGHTING_PRE_DEFINED_CURVE_FONT('continuous');
#223=DRAUGHTING_PRE_DEFINED_CURVE_FONT('continuous');
#224=DRAUGHTING_PRE_DEFINED_CURVE_FONT('continuous');
#225=DRAUGHTING_PRE_DEFINED_CURVE_FONT('continuous');
#226=PRESENTATION_LAYER_ASSIGNMENT('1','Layer 1',(#386,#290,#388,#389,#390,
#291,#292,#293,#419,#420,#421,#89,#311,#312,#313,#102,#442,#443,#317));
#227=PRESENTATION_LAYER_ASSIGNMENT('80','Layer 80',(#101));
#228=STYLED_ITEM('',(#248),#386);
#229=STYLED_ITEM('',(#249),#290);
#230=STYLED_ITEM('',(#250),#388);
#231=STYLED_ITEM('',(#251),#389);
#232=STYLED_ITEM('',(#252),#390);
#233=STYLED_ITEM('',(#253),#291);
#234=STYLED_ITEM('',(#254),#292);
#235=STYLED_ITEM('',(#255),#293);
#236=STYLED_ITEM('',(#256),#101);
#237=STYLED_ITEM('',(#257),#419);
#238=STYLED_ITEM('',(#258),#420);
#239=STYLED_ITEM('',(#259),#421);
#240=STYLED_ITEM('',(#260),#89);
#241=STYLED_ITEM('',(#261),#311);
#242=STYLED_ITEM('',(#262),#312);
#243=STYLED_ITEM('',(#263),#313);
#244=STYLED_ITEM('',(#264),#102);
#245=STYLED_ITEM('',(#265),#442);
#246=STYLED_ITEM('',(#266),#443);
#247=STYLED_ITEM('',(#267),#317);
#248=PRESENTATION_STYLE_ASSIGNMENT((#268));
#249=PRESENTATION_STYLE_ASSIGNMENT((#208));
#250=PRESENTATION_STYLE_ASSIGNMENT((#269));
#251=PRESENTATION_STYLE_ASSIGNMENT((#270));
#252=PRESENTATION_STYLE_ASSIGNMENT((#271));
#253=PRESENTATION_STYLE_ASSIGNMENT((#209));
#254=PRESENTATION_STYLE_ASSIGNMENT((#210));
#255=PRESENTATION_STYLE_ASSIGNMENT((#211));
#256=PRESENTATION_STYLE_ASSIGNMENT((#91));
#257=PRESENTATION_STYLE_ASSIGNMENT((#272));
#258=PRESENTATION_STYLE_ASSIGNMENT((#273));
#259=PRESENTATION_STYLE_ASSIGNMENT((#274));
#260=PRESENTATION_STYLE_ASSIGNMENT((#212));
#261=PRESENTATION_STYLE_ASSIGNMENT((#213));
#262=PRESENTATION_STYLE_ASSIGNMENT((#214));
#263=PRESENTATION_STYLE_ASSIGNMENT((#215));
#264=PRESENTATION_STYLE_ASSIGNMENT((#92));
#265=PRESENTATION_STYLE_ASSIGNMENT((#275));
#266=PRESENTATION_STYLE_ASSIGNMENT((#276));
#267=PRESENTATION_STYLE_ASSIGNMENT((#216));
#268=POINT_STYLE('',#277,POSITIVE_LENGTH_MEASURE(3.),#286);
#269=POINT_STYLE('',#278,POSITIVE_LENGTH_MEASURE(3.),#286);
#270=POINT_STYLE('',#279,POSITIVE_LENGTH_MEASURE(3.),#286);
#271=POINT_STYLE('',#280,POSITIVE_LENGTH_MEASURE(3.),#286);
#272=POINT_STYLE('',#281,POSITIVE_LENGTH_MEASURE(3.),#286);
#273=POINT_STYLE('',#282,POSITIVE_LENGTH_MEASURE(3.),#286);
#274=POINT_STYLE('',#283,POSITIVE_LENGTH_MEASURE(3.),#286);
#275=POINT_STYLE('',#284,POSITIVE_LENGTH_MEASURE(3.),#88);
#276=POINT_STYLE('',#285,POSITIVE_LENGTH_MEASURE(3.),#286);
#277=PRE_DEFINED_POINT_MARKER_SYMBOL('plus');
#278=PRE_DEFINED_POINT_MARKER_SYMBOL('plus');
#279=PRE_DEFINED_POINT_MARKER_SYMBOL('plus');
#280=PRE_DEFINED_POINT_MARKER_SYMBOL('plus');
#281=PRE_DEFINED_POINT_MARKER_SYMBOL('plus');
#282=PRE_DEFINED_POINT_MARKER_SYMBOL('plus');
#283=PRE_DEFINED_POINT_MARKER_SYMBOL('plus');
#284=PRE_DEFINED_POINT_MARKER_SYMBOL('plus');
#285=PRE_DEFINED_POINT_MARKER_SYMBOL('plus');
#286=COLOUR_RGB('Medium Maroon',0.6,0.4,0.4);
#287=COLOUR_RGB('Medium Gray',0.490196078431373,0.490196078431373,0.490196078431373);
#288=COLOUR_RGB('Light Gray',0.8,0.8,0.8);
#289=AXIS2_PLACEMENT_3D('',#385,#321,#322);
#290=AXIS2_PLACEMENT_3D('',#387,#323,#324);
#291=AXIS2_PLACEMENT_3D('CSW',#391,#325,#326);
#292=AXIS2_PLACEMENT_3D('MCS',#392,#327,#328);
#293=AXIS2_PLACEMENT_3D('PCS',#393,#329,#330);
#294=AXIS2_PLACEMENT_3D('',#394,#331,#332);
#295=AXIS2_PLACEMENT_3D('',#396,#333,#334);
#296=AXIS2_PLACEMENT_3D('',#397,#335,#336);
#297=AXIS2_PLACEMENT_3D('',#399,#337,#338);
#298=AXIS2_PLACEMENT_3D('',#401,#339,#340);
#299=AXIS2_PLACEMENT_3D('',#402,#341,#342);
#300=AXIS2_PLACEMENT_3D('',#404,#343,#344);
#301=AXIS2_PLACEMENT_3D('',#406,#345,#346);
#302=AXIS2_PLACEMENT_3D('',#407,#347,#348);
#303=AXIS2_PLACEMENT_3D('',#409,#349,#350);
#304=AXIS2_PLACEMENT_3D('',#411,#351,#352);
#305=AXIS2_PLACEMENT_3D('',#412,#353,#354);
#306=AXIS2_PLACEMENT_3D('',#413,#355,#356);
#307=AXIS2_PLACEMENT_3D('',#414,#357,#358);
#308=AXIS2_PLACEMENT_3D('',#415,#359,#360);
#309=AXIS2_PLACEMENT_3D('',#417,#361,#362);
#310=AXIS2_PLACEMENT_3D('',#418,#363,#364);
#311=AXIS2_PLACEMENT_3D('CIP',#435,#365,#366);
#312=AXIS2_PLACEMENT_3D('MCS',#436,#367,#368);
#313=AXIS2_PLACEMENT_3D('PCS',#437,#369,#370);
#314=AXIS2_PLACEMENT_3D('',#438,#371,#372);
#315=AXIS2_PLACEMENT_3D('',#440,#373,#374);
#316=AXIS2_PLACEMENT_3D('',#441,#375,#376);
#317=AXIS2_PLACEMENT_3D('',#444,#377,#378);
#318=AXIS2_PLACEMENT_3D('',#445,#379,#380);
#319=AXIS2_PLACEMENT_3D('',#446,#381,#382);
#320=AXIS2_PLACEMENT_3D('',#447,#383,#384);
#321=DIRECTION('',(0.,0.,1.));
#322=DIRECTION('',(1.,0.,0.));
#323=DIRECTION('',(0.,0.,1.));
#324=DIRECTION('',(1.,0.,0.));
#325=DIRECTION('',(0.,0.,1.));
#326=DIRECTION('',(1.,0.,0.));
#327=DIRECTION('',(0.,0.,1.));
#328=DIRECTION('',(1.,0.,0.));
#329=DIRECTION('',(0.,0.,1.));
#330=DIRECTION('',(1.,0.,0.));
#331=DIRECTION('',(0.,0.,1.));
#332=DIRECTION('',(1.,0.,0.));
#333=DIRECTION('',(0.,0.,1.));
#334=DIRECTION('',(1.,0.,0.));
#335=DIRECTION('',(0.,0.,-1.));
#336=DIRECTION('',(1.,0.,0.));
#337=DIRECTION('',(0.,0.,1.));
#338=DIRECTION('',(1.,0.,0.));
#339=DIRECTION('',(0.,0.,1.));
#340=DIRECTION('',(1.,0.,0.));
#341=DIRECTION('',(0.,0.,-1.));
#342=DIRECTION('',(-1.,0.,0.));
#343=DIRECTION('',(0.,0.,1.));
#344=DIRECTION('',(1.,0.,0.));
#345=DIRECTION('',(0.,0.,1.));
#346=DIRECTION('',(1.,0.,-2.02231762302105E-15));
#347=DIRECTION('',(0.,0.,1.));
#348=DIRECTION('',(-1.,0.,0.));
#349=DIRECTION('',(0.,0.,1.));
#350=DIRECTION('',(-1.,0.,0.));
#351=DIRECTION('',(0.,0.,1.));
#352=DIRECTION('',(1.,0.,0.));
#353=DIRECTION('',(0.,0.,-1.));
#354=DIRECTION('',(-1.,0.,0.));
#355=DIRECTION('',(0.,0.,1.));
#356=DIRECTION('',(1.,0.,0.));
#357=DIRECTION('',(0.,0.,1.));
#358=DIRECTION('',(1.,0.,0.));
#359=DIRECTION('',(0.,0.,1.));
#360=DIRECTION('',(1.,0.,0.));
#361=DIRECTION('',(0.,0.,1.));
#362=DIRECTION('',(1.,0.,0.));
#363=DIRECTION('',(-1.,0.,0.));
#364=DIRECTION('',(0.,0.,1.));
#365=DIRECTION('',(0.,0.,1.));
#366=DIRECTION('',(1.,0.,0.));
#367=DIRECTION('',(0.,0.,1.));
#368=DIRECTION('',(1.,0.,0.));
#369=DIRECTION('',(0.,0.,1.));
#370=DIRECTION('',(1.,0.,0.));
#371=DIRECTION('',(0.,0.,-1.));
#372=DIRECTION('',(-1.,0.,0.));
#373=DIRECTION('',(-6.12323399573677E-17,0.,-1.));
#374=DIRECTION('',(-1.,5.91327350820474E-17,0.));
#375=DIRECTION('',(0.,0.,1.));
#376=DIRECTION('',(1.,0.,0.));
#377=DIRECTION('',(0.,0.,1.));
#378=DIRECTION('',(1.,0.,0.));
#379=DIRECTION('',(0.,0.,1.));
#380=DIRECTION('',(1.,0.,0.));
#381=DIRECTION('',(0.,0.,1.));
#382=DIRECTION('',(1.,0.,0.));
#383=DIRECTION('',(0.,0.,1.));
#384=DIRECTION('',(1.,0.,0.));
#385=CARTESIAN_POINT('',(0.,0.,0.));
#386=CARTESIAN_POINT('',(0.,0.,0.));
#387=CARTESIAN_POINT('',(0.,0.,0.));
#388=CARTESIAN_POINT('PCS',(-1.43506444853725E-13,-1.9325850823246E-14,
0.));
#389=CARTESIAN_POINT('MCS',(0.,0.,-50.));
#390=CARTESIAN_POINT('CSW',(-1.4251936009084E-13,0.,-154.0045));
#391=CARTESIAN_POINT('',(-1.4251936009084E-13,0.,-154.0045));
#392=CARTESIAN_POINT('',(0.,0.,-50.));
#393=CARTESIAN_POINT('',(-1.43506444853725E-13,-1.9325850823246E-14,0.));
#394=CARTESIAN_POINT('',(-1.62832295676971E-13,0.,0.));
#395=CARTESIAN_POINT('',(8.49749999999983,0.,0.));
#396=CARTESIAN_POINT('',(-1.62832295676971E-13,0.,0.));
#397=CARTESIAN_POINT('',(-1.62832295676971E-13,0.,-136.550961641217));
#398=CARTESIAN_POINT('',(7.06249999999984,0.,-136.550961641217));
#399=CARTESIAN_POINT('',(-1.62832295676971E-13,0.,-158.));
#400=CARTESIAN_POINT('',(7.06249999999984,0.,-158.));
#401=CARTESIAN_POINT('',(-1.62832295676971E-13,0.,-22.7731847555534));
#402=CARTESIAN_POINT('',(-1.62832295676971E-13,0.,-67.9047237060051));
#403=CARTESIAN_POINT('',(-8.46093641840368,0.,-67.9047237060051));
#404=CARTESIAN_POINT('',(-1.62832295676971E-13,0.,-136.449048945837));
#405=CARTESIAN_POINT('',(7.06353872764331,0.,-136.449048945837));
#406=CARTESIAN_POINT('',(-1.62832295676971E-13,0.,-136.5));
#407=CARTESIAN_POINT('',(-1.62832295676971E-13,0.,-1.61500000000003));
#408=CARTESIAN_POINT('',(-10.1125000000002,0.,-1.61500000000003));
#409=CARTESIAN_POINT('',(-1.62832295676971E-13,0.,-65.9760011771564));
#410=CARTESIAN_POINT('',(-10.1125000000002,0.,-65.9760011771564));
#411=CARTESIAN_POINT('',(-1.62832295676971E-13,0.,-22.7731847555534));
#412=CARTESIAN_POINT('',(-1.62832295676971E-13,0.,0.));
#413=CARTESIAN_POINT('',(-1.62832295676971E-13,0.,-136.550961641217));
#414=CARTESIAN_POINT('',(-1.62832295676971E-13,0.,-67.9454887841571));
#415=CARTESIAN_POINT('',(-1.62832295676971E-13,0.,-163.5));
#416=CARTESIAN_POINT('',(4.43045214961166,0.,-163.5));
#417=CARTESIAN_POINT('',(-1.62832295676971E-13,0.,-163.5));
#418=CARTESIAN_POINT('',(-1.62832295676971E-13,0.,-158.));
#419=CARTESIAN_POINT('',(0.,0.,-11.9955));
#420=CARTESIAN_POINT('',(0.,0.,0.));
#421=CARTESIAN_POINT('',(0.,0.,0.));
#422=CARTESIAN_POINT('',(0.,4.44089209850063E-16,1.33226762955019E-15));
#423=CARTESIAN_POINT('',(-2.30872730091711,4.44089209850063E-16,1.33226762955019E-15));
#424=CARTESIAN_POINT('',(-4.61745460183422,4.44089209850063E-16,1.33226762955019E-15));
#425=CARTESIAN_POINT('',(-6.92618190275133,4.44089209850063E-16,2.22044604925031E-15));
#426=CARTESIAN_POINT('',(-7.2134992399493,4.44089209850063E-16,-0.498063356587987));
#427=CARTESIAN_POINT('',(-7.44563675470237,4.44089209850063E-16,-1.02411519212751));
#428=CARTESIAN_POINT('',(-7.61990657042318,7.94133999890943E-16,-1.57206445144055));
#429=CARTESIAN_POINT('',(-9.41403835352665,4.39789338142519E-15,-7.21327763339791));
#430=CARTESIAN_POINT('',(-5.91964483894062,1.14417878993182E-15,-11.9915));
#431=CARTESIAN_POINT('',(2.44806895149556E-16,7.94133999890943E-16,-11.9915));
#432=CARTESIAN_POINT('',(0.,4.44089209850063E-16,-7.99433333333333));
#433=CARTESIAN_POINT('',(0.,4.44089209850063E-16,-3.99716666666667));
#434=CARTESIAN_POINT('',(0.,4.44089209850063E-16,1.77635683940025E-15));
#435=CARTESIAN_POINT('',(0.,0.,-11.9955));
#436=CARTESIAN_POINT('',(0.,0.,0.));
#437=CARTESIAN_POINT('',(0.,0.,0.));
#438=CARTESIAN_POINT('',(0.,0.,2.22044604925031E-15));
#439=CARTESIAN_POINT('',(-6.92618190275133,0.,2.22044604925031E-15));
#440=CARTESIAN_POINT('',(9.14559089545482E-15,-1.15871088149025E-15,-3.99550000002084));
#441=CARTESIAN_POINT('',(-6.92618190275133,4.44089209850063E-16,1.77635683940025E-15));
#442=CARTESIAN_POINT('CRP',(-7.996,0.,-165.996));
#443=CARTESIAN_POINT('',(0.,0.,0.));
#444=CARTESIAN_POINT('',(0.,0.,0.));
#445=CARTESIAN_POINT('',(0.,0.,0.));
#446=CARTESIAN_POINT('',(9.8708476288509E-16,2.8421709430404E-14,-154.0045));
#447=CARTESIAN_POINT('',(0.,0.,0.));
#448=MECHANICAL_DESIGN_GEOMETRIC_PRESENTATION_REPRESENTATION('',(#228,#229),
#452);
#449=MECHANICAL_DESIGN_GEOMETRIC_PRESENTATION_REPRESENTATION('',(#230,#231,
#232,#233,#234,#235,#236),#453);
#450=MECHANICAL_DESIGN_GEOMETRIC_PRESENTATION_REPRESENTATION('',(#237,#238,
#239,#240,#241,#242,#243,#244),#454);
#451=MECHANICAL_DESIGN_GEOMETRIC_PRESENTATION_REPRESENTATION('',(#245,#246,
#247),#455);
#452=(
GEOMETRIC_REPRESENTATION_CONTEXT(3)
GLOBAL_UNCERTAINTY_ASSIGNED_CONTEXT((#456))
GLOBAL_UNIT_ASSIGNED_CONTEXT((#465,#461,#460))
REPRESENTATION_CONTEXT('1590648956893','TOP_LEVEL_ASSEMBLY_PART')
);
#453=(
GEOMETRIC_REPRESENTATION_CONTEXT(3)
GLOBAL_UNCERTAINTY_ASSIGNED_CONTEXT((#457))
GLOBAL_UNIT_ASSIGNED_CONTEXT((#465,#461,#460))
REPRESENTATION_CONTEXT('202460781mod000_00','COMPONENT_PART')
);
#454=(
GEOMETRIC_REPRESENTATION_CONTEXT(3)
GLOBAL_UNCERTAINTY_ASSIGNED_CONTEXT((#458))
GLOBAL_UNIT_ASSIGNED_CONTEXT((#465,#461,#460))
REPRESENTATION_CONTEXT('202455403mod000_00','COMPONENT_PART')
);
#455=(
GEOMETRIC_REPRESENTATION_CONTEXT(3)
GLOBAL_UNCERTAINTY_ASSIGNED_CONTEXT((#459))
GLOBAL_UNIT_ASSIGNED_CONTEXT((#465,#461,#460))
REPRESENTATION_CONTEXT('202460780mod000_00','COMPONENT_PART')
);
#456=UNCERTAINTY_MEASURE_WITH_UNIT(LENGTH_MEASURE(2.E-5),#465,
'DISTANCE_ACCURACY_VALUE','Maximum Tolerance applied to model');
#457=UNCERTAINTY_MEASURE_WITH_UNIT(LENGTH_MEASURE(2.E-5),#465,
'DISTANCE_ACCURACY_VALUE','Maximum Tolerance applied to model');
#458=UNCERTAINTY_MEASURE_WITH_UNIT(LENGTH_MEASURE(2.E-5),#465,
'DISTANCE_ACCURACY_VALUE','Maximum Tolerance applied to model');
#459=UNCERTAINTY_MEASURE_WITH_UNIT(LENGTH_MEASURE(2.E-5),#465,
'DISTANCE_ACCURACY_VALUE','Maximum Tolerance applied to model');
#460=(
NAMED_UNIT(*)
SI_UNIT($,.STERADIAN.)
SOLID_ANGLE_UNIT()
);
#461=(
CONVERSION_BASED_UNIT('DEGREE',#463)
NAMED_UNIT(#462)
PLANE_ANGLE_UNIT()
);
#462=DIMENSIONAL_EXPONENTS(0.,0.,0.,0.,0.,0.,0.);
#463=PLANE_ANGLE_MEASURE_WITH_UNIT(PLANE_ANGLE_MEASURE(0.0174532925),#464);
#464=(
NAMED_UNIT(*)
PLANE_ANGLE_UNIT()
SI_UNIT($,.RADIAN.)
);
#465=(
LENGTH_UNIT()
NAMED_UNIT(*)
SI_UNIT(.MILLI.,.METRE.)
);
ENDSEC;
END-ISO-10303-21;
