ISO-10303-21;
HEADER;
/* Generated by software containing ST-Developer
 * from STEP Tools, Inc. (www.steptools.com) 
 */
/* OPTION: using custom schema-name function */

FILE_DESCRIPTION(
/* description */ (''),
/* implementation_level */ '2;1');

FILE_NAME(
/* name */ '1590579285952.stp',
/* time_stamp */ '2020-05-27T17:05:36+06:00',
/* author */ (''),
/* organization */ ('SMS'),
/* preprocessor_version */ 'ST-DEVELOPER v16.7',
/* originating_system */ 'SIEMENS PLM Software NX 12.0',
/* authorisation */ '');

FILE_SCHEMA (('AUTOMOTIVE_DESIGN { 1 0 10303 214 3 1 1 1 }'));
ENDSEC;

DATA;
#10=CONTEXT_DEPENDENT_SHAPE_REPRESENTATION(#16,#50);
#11=CONTEXT_DEPENDENT_SHAPE_REPRESENTATION(#17,#51);
#12=CONTEXT_DEPENDENT_SHAPE_REPRESENTATION(#18,#52);
#13=NEXT_ASSEMBLY_USAGE_OCCURRENCE('1001',' ',
'NXMOD-TM01_00-000-00-R216F_10A12S_053_PP_BAS',#56,#55,$);
#14=NEXT_ASSEMBLY_USAGE_OCCURRENCE('1002',' ',
'NXMOD-TM01_00-000-00-MI_R216F_1026_R1_BAS',#56,#54,$);
#15=NEXT_ASSEMBLY_USAGE_OCCURRENCE('1003',' ',
'NXMOD-TM02_00-000-00-R216F_10A12S_053_ACN_BAS',#56,#53,$);
#16=(
REPRESENTATION_RELATIONSHIP(' ',' ',#81,#82)
REPRESENTATION_RELATIONSHIP_WITH_TRANSFORMATION(#19)
SHAPE_REPRESENTATION_RELATIONSHIP()
);
#17=(
REPRESENTATION_RELATIONSHIP(' ',' ',#80,#82)
REPRESENTATION_RELATIONSHIP_WITH_TRANSFORMATION(#20)
SHAPE_REPRESENTATION_RELATIONSHIP()
);
#18=(
REPRESENTATION_RELATIONSHIP(' ',' ',#79,#82)
REPRESENTATION_RELATIONSHIP_WITH_TRANSFORMATION(#21)
SHAPE_REPRESENTATION_RELATIONSHIP()
);
#19=ITEM_DEFINED_TRANSFORMATION(' ',' ',#310,#343);
#20=ITEM_DEFINED_TRANSFORMATION(' ',' ',#310,#344);
#21=ITEM_DEFINED_TRANSFORMATION(' ',' ',#310,#345);
#22=ADVANCED_BREP_SHAPE_REPRESENTATION('202506381mod000_00-None',(#102),
#500);
#23=ADVANCED_BREP_SHAPE_REPRESENTATION('202460753mod000_00-None',(#101),
#499);
#24=CONSTRUCTIVE_GEOMETRY_REPRESENTATION_RELATIONSHIP(
'supplemental geometry','',#79,#28);
#25=CONSTRUCTIVE_GEOMETRY_REPRESENTATION_RELATIONSHIP(
'supplemental geometry','',#80,#29);
#26=CONSTRUCTIVE_GEOMETRY_REPRESENTATION_RELATIONSHIP(
'supplemental geometry','',#81,#30);
#27=CONSTRUCTIVE_GEOMETRY_REPRESENTATION_RELATIONSHIP(
'supplemental geometry','',#82,#31);
#28=CONSTRUCTIVE_GEOMETRY_REPRESENTATION('supplemental geometry',(#342),
#501);
#29=CONSTRUCTIVE_GEOMETRY_REPRESENTATION('supplemental geometry',(#336,
#337,#338),#500);
#30=CONSTRUCTIVE_GEOMETRY_REPRESENTATION('supplemental geometry',(#312,
#313,#314),#499);
#31=CONSTRUCTIVE_GEOMETRY_REPRESENTATION('supplemental geometry',(#311),
#498);
#32=SHAPE_REPRESENTATION_RELATIONSHIP('None',
'relationship between 203012662mod000_00-None and 203012662mod000_00-N
one',#79,#38);
#33=SHAPE_REPRESENTATION_RELATIONSHIP('None',
'relationship between 202506381mod000_00-None and 202506381mod000_00-N
one',#80,#22);
#34=SHAPE_REPRESENTATION_RELATIONSHIP('None',
'relationship between 202506381mod000_00-None and 202506381mod000_00-N
one',#80,#39);
#35=SHAPE_REPRESENTATION_RELATIONSHIP('None',
'relationship between 202460753mod000_00-None and 202460753mod000_00-N
one',#81,#23);
#36=SHAPE_REPRESENTATION_RELATIONSHIP('None',
'relationship between 202460753mod000_00-None and 202460753mod000_00-N
one',#81,#40);
#37=SHAPE_REPRESENTATION_RELATIONSHIP('None',
'relationship between 202460755mod000_00-None and 202460755mod000_00-N
one',#82,#41);
#38=GEOMETRICALLY_BOUNDED_WIREFRAME_SHAPE_REPRESENTATION(
'203012662mod000_00-None',(#83),#501);
#39=GEOMETRICALLY_BOUNDED_WIREFRAME_SHAPE_REPRESENTATION(
'202506381mod000_00-None',(#84),#500);
#40=GEOMETRICALLY_BOUNDED_WIREFRAME_SHAPE_REPRESENTATION(
'202460753mod000_00-None',(#85),#499);
#41=GEOMETRICALLY_BOUNDED_WIREFRAME_SHAPE_REPRESENTATION(
'202460755mod000_00-None',(#86),#498);
#42=SHAPE_DEFINITION_REPRESENTATION(#46,#79);
#43=SHAPE_DEFINITION_REPRESENTATION(#47,#80);
#44=SHAPE_DEFINITION_REPRESENTATION(#48,#81);
#45=SHAPE_DEFINITION_REPRESENTATION(#49,#82);
#46=PRODUCT_DEFINITION_SHAPE('','',#53);
#47=PRODUCT_DEFINITION_SHAPE('','',#54);
#48=PRODUCT_DEFINITION_SHAPE('','',#55);
#49=PRODUCT_DEFINITION_SHAPE('','',#56);
#50=PRODUCT_DEFINITION_SHAPE(' ','NAUO PRDDFN',#13);
#51=PRODUCT_DEFINITION_SHAPE(' ','NAUO PRDDFN',#14);
#52=PRODUCT_DEFINITION_SHAPE(' ','NAUO PRDDFN',#15);
#53=PRODUCT_DEFINITION(' ','',#61,#57);
#54=PRODUCT_DEFINITION(' ','',#62,#58);
#55=PRODUCT_DEFINITION(' ','',#63,#59);
#56=PRODUCT_DEFINITION(' ','',#64,#60);
#57=PRODUCT_DEFINITION_CONTEXT('part definition',#78,'design');
#58=PRODUCT_DEFINITION_CONTEXT('part definition',#78,'design');
#59=PRODUCT_DEFINITION_CONTEXT('part definition',#78,'design');
#60=PRODUCT_DEFINITION_CONTEXT('part definition',#78,'design');
#61=PRODUCT_DEFINITION_FORMATION_WITH_SPECIFIED_SOURCE(' ',' ',#69,
 .NOT_KNOWN.);
#62=PRODUCT_DEFINITION_FORMATION_WITH_SPECIFIED_SOURCE(' ',' ',#70,
 .NOT_KNOWN.);
#63=PRODUCT_DEFINITION_FORMATION_WITH_SPECIFIED_SOURCE(' ',' ',#71,
 .NOT_KNOWN.);
#64=PRODUCT_DEFINITION_FORMATION_WITH_SPECIFIED_SOURCE(' ',' ',#72,
 .NOT_KNOWN.);
#65=PRODUCT_RELATED_PRODUCT_CATEGORY('part','',(#69));
#66=PRODUCT_RELATED_PRODUCT_CATEGORY('part','',(#70));
#67=PRODUCT_RELATED_PRODUCT_CATEGORY('part','',(#71));
#68=PRODUCT_RELATED_PRODUCT_CATEGORY('part','',(#72));
#69=PRODUCT('ASSEMBLY_CONSTRUCTION','203012662mod000_00',' ',(#73));
#70=PRODUCT('202506381mod000_00','202506381mod000_00','MASTER_INSERT',(#74));
#71=PRODUCT('202460753mod000_00','202460753mod000_00','NOCUT',(#75));
#72=PRODUCT('202460755mod000_00','202460755mod000_00',' ',(#76));
#73=PRODUCT_CONTEXT(' ',#78,'mechanical');
#74=PRODUCT_CONTEXT(' ',#78,'mechanical');
#75=PRODUCT_CONTEXT(' ',#78,'mechanical');
#76=PRODUCT_CONTEXT(' ',#78,'mechanical');
#77=APPLICATION_PROTOCOL_DEFINITION('international standard',
'automotive_design',2010,#78);
#78=APPLICATION_CONTEXT(
'core data for automotive mechanical design processes');
#79=SHAPE_REPRESENTATION('203012662mod000_00-None',(#310),#501);
#80=SHAPE_REPRESENTATION('202506381mod000_00-None',(#310),#500);
#81=SHAPE_REPRESENTATION('202460753mod000_00-None',(#310),#499);
#82=SHAPE_REPRESENTATION('202460755mod000_00-None',(#310,#343,#344,#345),
#498);
#83=GEOMETRIC_CURVE_SET('None',(#488,#489));
#84=GEOMETRIC_CURVE_SET('None',(#458,#459,#460,#89));
#85=GEOMETRIC_CURVE_SET('None',(#421,#422,#423));
#86=GEOMETRIC_CURVE_SET('None',(#419));
#87=DRAUGHTING_PRE_DEFINED_COLOUR('blue');
#88=DRAUGHTING_PRE_DEFINED_COLOUR('white');
#89=TRIMMED_CURVE('CUTTING EDGE LINE',#90,(PARAMETER_VALUE(0.)),(
PARAMETER_VALUE(1.)),.T.,.PARAMETER.);
#90=(
BOUNDED_CURVE()
B_SPLINE_CURVE(4,(#461,#462,#463,#464,#465,#466,#467,#468,#469,#470,#471,
#472,#473,#474,#475,#476,#477,#478,#479,#480),.UNSPECIFIED.,.T.,.F.)
B_SPLINE_CURVE_WITH_KNOTS((5,4,4,3,4,5),(0.,0.150129739173131,0.184658891795158,
0.413793442477226,0.642927993159295,1.),.UNSPECIFIED.)
CURVE()
GEOMETRIC_REPRESENTATION_ITEM()
RATIONAL_B_SPLINE_CURVE((1.,1.,1.,1.,1.,0.998312791820137,0.997750389093516,
0.998312791820137,1.,1.,0.985977149606523,1.,1.,0.985977149606523,1.,1.,
1.,1.,1.,1.))
REPRESENTATION_ITEM('CUTTING EDGE LINE')
);
#91=SURFACE_STYLE_USAGE(.BOTH.,#93);
#92=SURFACE_STYLE_USAGE(.BOTH.,#94);
#93=SURFACE_SIDE_STYLE('',(#95));
#94=SURFACE_SIDE_STYLE('',(#96));
#95=SURFACE_STYLE_FILL_AREA(#97);
#96=SURFACE_STYLE_FILL_AREA(#98);
#97=FILL_AREA_STYLE('',(#99));
#98=FILL_AREA_STYLE('',(#100));
#99=FILL_AREA_STYLE_COLOUR('',#308);
#100=FILL_AREA_STYLE_COLOUR('',#309);
#101=MANIFOLD_SOLID_BREP('NOCUT',#103);
#102=MANIFOLD_SOLID_BREP('CUT',#104);
#103=CLOSED_SHELL('',(#119,#120,#121,#122,#123,#124,#125,#126,#127,#128,
#129));
#104=CLOSED_SHELL('',(#130,#131));
#105=CONICAL_SURFACE('',#327,4.0625,3.74417558160366);
#106=CONICAL_SURFACE('',#331,5.49749999999999,44.9999999999986);
#107=CYLINDRICAL_SURFACE('',#322,3.9975);
#108=CYLINDRICAL_SURFACE('',#324,4.0625);
#109=CYLINDRICAL_SURFACE('',#333,6.0625);
#110=SPHERICAL_SURFACE('',#321,4.0625);
#111=SPHERICAL_SURFACE('',#340,4.996);
#112=PLANE('',#319);
#113=PLANE('',#329);
#114=PLANE('',#341);
#115=FACE_OUTER_BOUND('',#155,.T.);
#116=FACE_OUTER_BOUND('',#164,.T.);
#117=FACE_OUTER_BOUND('',#173,.T.);
#118=FACE_OUTER_BOUND('',#174,.T.);
#119=ADVANCED_FACE('',(#135,#136),#132,.F.);
#120=ADVANCED_FACE('',(#115),#112,.F.);
#121=ADVANCED_FACE('',(#137,#138),#110,.T.);
#122=ADVANCED_FACE('',(#139,#140),#107,.T.);
#123=ADVANCED_FACE('',(#141,#142),#108,.T.);
#124=ADVANCED_FACE('',(#143,#144),#105,.T.);
#125=ADVANCED_FACE('',(#116),#113,.T.);
#126=ADVANCED_FACE('',(#145,#146),#106,.T.);
#127=ADVANCED_FACE('',(#147,#148),#109,.T.);
#128=ADVANCED_FACE('',(#149,#150),#133,.F.);
#129=ADVANCED_FACE('',(#151,#152),#134,.F.);
#130=ADVANCED_FACE('',(#117),#111,.T.);
#131=ADVANCED_FACE('',(#118),#114,.T.);
#132=TOROIDAL_SURFACE('',#317,4.9975,1.);
#133=TOROIDAL_SURFACE('',#334,6.88497467271745,2.);
#134=TOROIDAL_SURFACE('',#335,9.0625,5.);
#135=FACE_BOUND('',#153,.T.);
#136=FACE_BOUND('',#154,.T.);
#137=FACE_BOUND('',#156,.T.);
#138=FACE_BOUND('',#157,.T.);
#139=FACE_BOUND('',#158,.T.);
#140=FACE_BOUND('',#159,.T.);
#141=FACE_BOUND('',#160,.T.);
#142=FACE_BOUND('',#161,.T.);
#143=FACE_BOUND('',#162,.T.);
#144=FACE_BOUND('',#163,.T.);
#145=FACE_BOUND('',#165,.T.);
#146=FACE_BOUND('',#166,.T.);
#147=FACE_BOUND('',#167,.T.);
#148=FACE_BOUND('',#168,.T.);
#149=FACE_BOUND('',#169,.T.);
#150=FACE_BOUND('',#170,.T.);
#151=FACE_BOUND('',#171,.T.);
#152=FACE_BOUND('',#172,.T.);
#153=EDGE_LOOP('',(#175));
#154=EDGE_LOOP('',(#176));
#155=EDGE_LOOP('',(#177));
#156=EDGE_LOOP('',(#178));
#157=EDGE_LOOP('',(#179));
#158=EDGE_LOOP('',(#180));
#159=EDGE_LOOP('',(#181));
#160=EDGE_LOOP('',(#182));
#161=EDGE_LOOP('',(#183));
#162=EDGE_LOOP('',(#184));
#163=EDGE_LOOP('',(#185));
#164=EDGE_LOOP('',(#186));
#165=EDGE_LOOP('',(#187));
#166=EDGE_LOOP('',(#188));
#167=EDGE_LOOP('',(#189));
#168=EDGE_LOOP('',(#190));
#169=EDGE_LOOP('',(#191));
#170=EDGE_LOOP('',(#192));
#171=EDGE_LOOP('',(#193));
#172=EDGE_LOOP('',(#194));
#173=EDGE_LOOP('',(#195));
#174=EDGE_LOOP('',(#196));
#175=ORIENTED_EDGE('',*,*,#208,.F.);
#176=ORIENTED_EDGE('',*,*,#209,.F.);
#177=ORIENTED_EDGE('',*,*,#210,.F.);
#178=ORIENTED_EDGE('',*,*,#211,.T.);
#179=ORIENTED_EDGE('',*,*,#210,.T.);
#180=ORIENTED_EDGE('',*,*,#211,.F.);
#181=ORIENTED_EDGE('',*,*,#208,.T.);
#182=ORIENTED_EDGE('',*,*,#212,.T.);
#183=ORIENTED_EDGE('',*,*,#209,.T.);
#184=ORIENTED_EDGE('',*,*,#213,.T.);
#185=ORIENTED_EDGE('',*,*,#214,.T.);
#186=ORIENTED_EDGE('',*,*,#215,.T.);
#187=ORIENTED_EDGE('',*,*,#216,.T.);
#188=ORIENTED_EDGE('',*,*,#215,.F.);
#189=ORIENTED_EDGE('',*,*,#217,.T.);
#190=ORIENTED_EDGE('',*,*,#216,.F.);
#191=ORIENTED_EDGE('',*,*,#217,.F.);
#192=ORIENTED_EDGE('',*,*,#214,.F.);
#193=ORIENTED_EDGE('',*,*,#213,.F.);
#194=ORIENTED_EDGE('',*,*,#212,.F.);
#195=ORIENTED_EDGE('',*,*,#218,.T.);
#196=ORIENTED_EDGE('',*,*,#218,.F.);
#197=VERTEX_POINT('',#428);
#198=VERTEX_POINT('',#430);
#199=VERTEX_POINT('',#433);
#200=VERTEX_POINT('',#436);
#201=VERTEX_POINT('',#440);
#202=VERTEX_POINT('',#443);
#203=VERTEX_POINT('',#445);
#204=VERTEX_POINT('',#448);
#205=VERTEX_POINT('',#451);
#206=VERTEX_POINT('',#454);
#207=VERTEX_POINT('',#485);
#208=EDGE_CURVE('',#197,#197,#219,.T.);
#209=EDGE_CURVE('',#198,#198,#220,.T.);
#210=EDGE_CURVE('',#199,#199,#221,.T.);
#211=EDGE_CURVE('',#200,#200,#222,.T.);
#212=EDGE_CURVE('',#201,#201,#223,.T.);
#213=EDGE_CURVE('',#202,#202,#224,.T.);
#214=EDGE_CURVE('',#203,#203,#225,.T.);
#215=EDGE_CURVE('',#204,#204,#226,.T.);
#216=EDGE_CURVE('',#205,#205,#227,.T.);
#217=EDGE_CURVE('',#206,#206,#228,.T.);
#218=EDGE_CURVE('',#207,#207,#229,.T.);
#219=CIRCLE('',#315,3.9975);
#220=CIRCLE('',#316,4.0625);
#221=CIRCLE('',#318,2.50277970464842);
#222=CIRCLE('',#320,3.9975);
#223=CIRCLE('',#323,4.0625);
#224=CIRCLE('',#325,4.07317216671979);
#225=CIRCLE('',#326,4.88924353940536);
#226=CIRCLE('',#328,5.49749999999999);
#227=CIRCLE('',#330,6.0625);
#228=CIRCLE('',#332,6.0625);
#229=CIRCLE('',#339,3.57001274507526);
#230=CURVE_STYLE('',#239,POSITIVE_LENGTH_MEASURE(0.18),#307);
#231=CURVE_STYLE('',#240,POSITIVE_LENGTH_MEASURE(0.18),#307);
#232=CURVE_STYLE('',#241,POSITIVE_LENGTH_MEASURE(0.18),#307);
#233=CURVE_STYLE('',#242,POSITIVE_LENGTH_MEASURE(0.18),#307);
#234=CURVE_STYLE('',#243,POSITIVE_LENGTH_MEASURE(0.18),#87);
#235=CURVE_STYLE('',#244,POSITIVE_LENGTH_MEASURE(0.18),#307);
#236=CURVE_STYLE('',#245,POSITIVE_LENGTH_MEASURE(0.18),#307);
#237=CURVE_STYLE('',#246,POSITIVE_LENGTH_MEASURE(0.18),#307);
#238=CURVE_STYLE('',#247,POSITIVE_LENGTH_MEASURE(0.18),#307);
#239=DRAUGHTING_PRE_DEFINED_CURVE_FONT('continuous');
#240=DRAUGHTING_PRE_DEFINED_CURVE_FONT('continuous');
#241=DRAUGHTING_PRE_DEFINED_CURVE_FONT('continuous');
#242=DRAUGHTING_PRE_DEFINED_CURVE_FONT('continuous');
#243=DRAUGHTING_PRE_DEFINED_CURVE_FONT('continuous');
#244=DRAUGHTING_PRE_DEFINED_CURVE_FONT('continuous');
#245=DRAUGHTING_PRE_DEFINED_CURVE_FONT('continuous');
#246=DRAUGHTING_PRE_DEFINED_CURVE_FONT('continuous');
#247=DRAUGHTING_PRE_DEFINED_CURVE_FONT('continuous');
#248=PRESENTATION_LAYER_ASSIGNMENT('1','Layer 1',(#419,#311,#421,#422,#423,
#312,#313,#314,#101,#458,#459,#460,#89,#336,#337,#338,#102,#488,#489,#342));
#249=STYLED_ITEM('',(#269),#419);
#250=STYLED_ITEM('',(#270),#311);
#251=STYLED_ITEM('',(#271),#421);
#252=STYLED_ITEM('',(#272),#422);
#253=STYLED_ITEM('',(#273),#423);
#254=STYLED_ITEM('',(#274),#312);
#255=STYLED_ITEM('',(#275),#313);
#256=STYLED_ITEM('',(#276),#314);
#257=STYLED_ITEM('',(#277),#101);
#258=STYLED_ITEM('',(#278),#458);
#259=STYLED_ITEM('',(#279),#459);
#260=STYLED_ITEM('',(#280),#460);
#261=STYLED_ITEM('',(#281),#89);
#262=STYLED_ITEM('',(#282),#336);
#263=STYLED_ITEM('',(#283),#337);
#264=STYLED_ITEM('',(#284),#338);
#265=STYLED_ITEM('',(#285),#102);
#266=STYLED_ITEM('',(#286),#488);
#267=STYLED_ITEM('',(#287),#489);
#268=STYLED_ITEM('',(#288),#342);
#269=PRESENTATION_STYLE_ASSIGNMENT((#289));
#270=PRESENTATION_STYLE_ASSIGNMENT((#230));
#271=PRESENTATION_STYLE_ASSIGNMENT((#290));
#272=PRESENTATION_STYLE_ASSIGNMENT((#291));
#273=PRESENTATION_STYLE_ASSIGNMENT((#292));
#274=PRESENTATION_STYLE_ASSIGNMENT((#231));
#275=PRESENTATION_STYLE_ASSIGNMENT((#232));
#276=PRESENTATION_STYLE_ASSIGNMENT((#233));
#277=PRESENTATION_STYLE_ASSIGNMENT((#91));
#278=PRESENTATION_STYLE_ASSIGNMENT((#293));
#279=PRESENTATION_STYLE_ASSIGNMENT((#294));
#280=PRESENTATION_STYLE_ASSIGNMENT((#295));
#281=PRESENTATION_STYLE_ASSIGNMENT((#234));
#282=PRESENTATION_STYLE_ASSIGNMENT((#235));
#283=PRESENTATION_STYLE_ASSIGNMENT((#236));
#284=PRESENTATION_STYLE_ASSIGNMENT((#237));
#285=PRESENTATION_STYLE_ASSIGNMENT((#92));
#286=PRESENTATION_STYLE_ASSIGNMENT((#296));
#287=PRESENTATION_STYLE_ASSIGNMENT((#297));
#288=PRESENTATION_STYLE_ASSIGNMENT((#238));
#289=POINT_STYLE('',#298,POSITIVE_LENGTH_MEASURE(3.),#307);
#290=POINT_STYLE('',#299,POSITIVE_LENGTH_MEASURE(3.),#307);
#291=POINT_STYLE('',#300,POSITIVE_LENGTH_MEASURE(3.),#307);
#292=POINT_STYLE('',#301,POSITIVE_LENGTH_MEASURE(3.),#307);
#293=POINT_STYLE('',#302,POSITIVE_LENGTH_MEASURE(3.),#307);
#294=POINT_STYLE('',#303,POSITIVE_LENGTH_MEASURE(3.),#307);
#295=POINT_STYLE('',#304,POSITIVE_LENGTH_MEASURE(3.),#307);
#296=POINT_STYLE('',#305,POSITIVE_LENGTH_MEASURE(3.),#88);
#297=POINT_STYLE('',#306,POSITIVE_LENGTH_MEASURE(3.),#307);
#298=PRE_DEFINED_POINT_MARKER_SYMBOL('plus');
#299=PRE_DEFINED_POINT_MARKER_SYMBOL('plus');
#300=PRE_DEFINED_POINT_MARKER_SYMBOL('plus');
#301=PRE_DEFINED_POINT_MARKER_SYMBOL('plus');
#302=PRE_DEFINED_POINT_MARKER_SYMBOL('plus');
#303=PRE_DEFINED_POINT_MARKER_SYMBOL('plus');
#304=PRE_DEFINED_POINT_MARKER_SYMBOL('plus');
#305=PRE_DEFINED_POINT_MARKER_SYMBOL('plus');
#306=PRE_DEFINED_POINT_MARKER_SYMBOL('plus');
#307=COLOUR_RGB('Medium Maroon',0.6,0.4,0.4);
#308=COLOUR_RGB('Medium Gray',0.490196078431373,0.490196078431373,0.490196078431373);
#309=COLOUR_RGB('Light Gray',0.8,0.8,0.8);
#310=AXIS2_PLACEMENT_3D('',#418,#346,#347);
#311=AXIS2_PLACEMENT_3D('',#420,#348,#349);
#312=AXIS2_PLACEMENT_3D('PCS',#424,#350,#351);
#313=AXIS2_PLACEMENT_3D('MCS',#425,#352,#353);
#314=AXIS2_PLACEMENT_3D('CSW',#426,#354,#355);
#315=AXIS2_PLACEMENT_3D('',#427,#356,#357);
#316=AXIS2_PLACEMENT_3D('',#429,#358,#359);
#317=AXIS2_PLACEMENT_3D('',#431,#360,#361);
#318=AXIS2_PLACEMENT_3D('',#432,#362,#363);
#319=AXIS2_PLACEMENT_3D('',#434,#364,#365);
#320=AXIS2_PLACEMENT_3D('',#435,#366,#367);
#321=AXIS2_PLACEMENT_3D('',#437,#368,#369);
#322=AXIS2_PLACEMENT_3D('',#438,#370,#371);
#323=AXIS2_PLACEMENT_3D('',#439,#372,#373);
#324=AXIS2_PLACEMENT_3D('',#441,#374,#375);
#325=AXIS2_PLACEMENT_3D('',#442,#376,#377);
#326=AXIS2_PLACEMENT_3D('',#444,#378,#379);
#327=AXIS2_PLACEMENT_3D('',#446,#380,#381);
#328=AXIS2_PLACEMENT_3D('',#447,#382,#383);
#329=AXIS2_PLACEMENT_3D('',#449,#384,#385);
#330=AXIS2_PLACEMENT_3D('',#450,#386,#387);
#331=AXIS2_PLACEMENT_3D('',#452,#388,#389);
#332=AXIS2_PLACEMENT_3D('',#453,#390,#391);
#333=AXIS2_PLACEMENT_3D('',#455,#392,#393);
#334=AXIS2_PLACEMENT_3D('',#456,#394,#395);
#335=AXIS2_PLACEMENT_3D('',#457,#396,#397);
#336=AXIS2_PLACEMENT_3D('PCS',#481,#398,#399);
#337=AXIS2_PLACEMENT_3D('CIP',#482,#400,#401);
#338=AXIS2_PLACEMENT_3D('MCS',#483,#402,#403);
#339=AXIS2_PLACEMENT_3D('',#484,#404,#405);
#340=AXIS2_PLACEMENT_3D('',#486,#406,#407);
#341=AXIS2_PLACEMENT_3D('',#487,#408,#409);
#342=AXIS2_PLACEMENT_3D('',#490,#410,#411);
#343=AXIS2_PLACEMENT_3D('',#491,#412,#413);
#344=AXIS2_PLACEMENT_3D('',#492,#414,#415);
#345=AXIS2_PLACEMENT_3D('',#493,#416,#417);
#346=DIRECTION('',(0.,0.,1.));
#347=DIRECTION('',(1.,0.,0.));
#348=DIRECTION('',(0.,0.,1.));
#349=DIRECTION('',(1.,0.,0.));
#350=DIRECTION('',(0.,0.,1.));
#351=DIRECTION('',(1.,0.,0.));
#352=DIRECTION('',(0.,0.,1.));
#353=DIRECTION('',(1.,0.,0.));
#354=DIRECTION('',(0.,0.,1.));
#355=DIRECTION('',(1.,0.,0.));
#356=DIRECTION('',(0.,0.,-1.));
#357=DIRECTION('',(0.,-1.,0.));
#358=DIRECTION('',(0.,0.,1.));
#359=DIRECTION('',(0.,-1.,0.));
#360=DIRECTION('',(0.,0.,-1.));
#361=DIRECTION('',(0.,1.,0.));
#362=DIRECTION('',(0.,0.,1.));
#363=DIRECTION('',(0.,1.,0.));
#364=DIRECTION('',(0.,0.,1.));
#365=DIRECTION('',(0.,-1.,0.));
#366=DIRECTION('',(0.,0.,-1.));
#367=DIRECTION('',(0.,1.,0.));
#368=DIRECTION('',(0.,-1.,0.));
#369=DIRECTION('',(0.,0.,-0.999999999999999));
#370=DIRECTION('',(0.,0.,-1.));
#371=DIRECTION('',(0.,1.,0.));
#372=DIRECTION('',(0.,0.,-1.));
#373=DIRECTION('',(0.,-1.,0.));
#374=DIRECTION('',(0.,0.,-1.));
#375=DIRECTION('',(0.,1.,0.));
#376=DIRECTION('',(0.,0.,1.));
#377=DIRECTION('',(0.,1.,0.));
#378=DIRECTION('',(0.,0.,-1.));
#379=DIRECTION('',(0.,1.,0.));
#380=DIRECTION('',(0.,0.,1.));
#381=DIRECTION('',(0.,-1.,-3.99338554990007E-16));
#382=DIRECTION('',(0.,0.,1.));
#383=DIRECTION('',(0.,1.,0.));
#384=DIRECTION('',(0.,0.,1.));
#385=DIRECTION('',(0.,-1.,0.));
#386=DIRECTION('',(0.,0.,1.));
#387=DIRECTION('',(0.,-1.,0.));
#388=DIRECTION('',(0.,0.,-1.));
#389=DIRECTION('',(0.,1.,0.));
#390=DIRECTION('',(0.,0.,1.));
#391=DIRECTION('',(0.,1.,0.));
#392=DIRECTION('',(0.,0.,1.));
#393=DIRECTION('',(0.,-1.,0.));
#394=DIRECTION('',(0.,0.,1.));
#395=DIRECTION('',(0.,-1.,0.));
#396=DIRECTION('',(0.,0.,-1.));
#397=DIRECTION('',(0.,1.,0.));
#398=DIRECTION('',(0.,0.,1.));
#399=DIRECTION('',(1.,0.,0.));
#400=DIRECTION('',(0.,0.,1.));
#401=DIRECTION('',(1.,0.,0.));
#402=DIRECTION('',(0.,0.,1.));
#403=DIRECTION('',(1.,0.,0.));
#404=DIRECTION('',(0.,0.,-1.));
#405=DIRECTION('',(-1.,0.,0.));
#406=DIRECTION('',(-6.12323399573677E-17,0.,-1.));
#407=DIRECTION('',(-1.,0.,0.));
#408=DIRECTION('',(0.,0.,1.));
#409=DIRECTION('',(1.,0.,0.));
#410=DIRECTION('',(0.,0.,1.));
#411=DIRECTION('',(1.,0.,0.));
#412=DIRECTION('',(0.,0.,1.));
#413=DIRECTION('',(1.,0.,0.));
#414=DIRECTION('',(0.,0.,1.));
#415=DIRECTION('',(1.,0.,0.));
#416=DIRECTION('',(0.,0.,1.));
#417=DIRECTION('',(1.,0.,0.));
#418=CARTESIAN_POINT('',(0.,0.,0.));
#419=CARTESIAN_POINT('',(0.,0.,0.));
#420=CARTESIAN_POINT('',(0.,0.,0.));
#421=CARTESIAN_POINT('',(0.,0.,-45.));
#422=CARTESIAN_POINT('',(-7.89272076515154E-16,0.,-101.505));
#423=CARTESIAN_POINT('',(0.,0.,0.));
#424=CARTESIAN_POINT('',(0.,0.,0.));
#425=CARTESIAN_POINT('',(0.,0.,-45.));
#426=CARTESIAN_POINT('',(-7.89272076515154E-16,0.,-101.505));
#427=CARTESIAN_POINT('',(0.,0.,-88.6042));
#428=CARTESIAN_POINT('',(0.,-3.9975,-88.6042));
#429=CARTESIAN_POINT('',(0.,0.,-88.2495522874739));
#430=CARTESIAN_POINT('',(0.,-4.0625,-88.2495522874739));
#431=CARTESIAN_POINT('',(0.,0.,-88.6042));
#432=CARTESIAN_POINT('',(0.,0.,-108.2));
#433=CARTESIAN_POINT('',(0.,2.50277970464842,-108.2));
#434=CARTESIAN_POINT('',(0.,0.,-108.2));
#435=CARTESIAN_POINT('',(0.,0.,-105.723809367168));
#436=CARTESIAN_POINT('',(0.,3.9975,-105.723809367168));
#437=CARTESIAN_POINT('',(0.,0.,-105.));
#438=CARTESIAN_POINT('',(0.,0.,-93.447678340341));
#439=CARTESIAN_POINT('',(0.,0.,-71.4634286419366));
#440=CARTESIAN_POINT('',(0.,-4.0625,-71.4634286419366));
#441=CARTESIAN_POINT('',(0.,0.,23.0268152444466));
#442=CARTESIAN_POINT('',(0.,0.,-71.1369201856061));
#443=CARTESIAN_POINT('',(0.,4.07317216671979,-71.1369201856061));
#444=CARTESIAN_POINT('',(0.,0.,-58.6666532300658));
#445=CARTESIAN_POINT('',(0.,4.88924353940536,-58.6666532300658));
#446=CARTESIAN_POINT('',(0.,0.,-71.3));
#447=CARTESIAN_POINT('',(0.,0.,0.));
#448=CARTESIAN_POINT('',(0.,5.49749999999999,0.));
#449=CARTESIAN_POINT('',(0.,0.,0.));
#450=CARTESIAN_POINT('',(0.,0.,-0.565000000000038));
#451=CARTESIAN_POINT('',(0.,-6.0625,-0.565000000000038));
#452=CARTESIAN_POINT('',(0.,0.,0.));
#453=CARTESIAN_POINT('',(0.,0.,-56.9742));
#454=CARTESIAN_POINT('',(0.,6.0625,-56.9742));
#455=CARTESIAN_POINT('',(0.,0.,23.0268152444466));
#456=CARTESIAN_POINT('',(0.,0.,-58.797256612598));
#457=CARTESIAN_POINT('',(0.,0.,-71.4634286419366));
#458=CARTESIAN_POINT('',(0.,0.,0.));
#459=CARTESIAN_POINT('',(2.76463466041476E-14,0.,-8.495));
#460=CARTESIAN_POINT('',(0.,0.,0.));
#461=CARTESIAN_POINT('',(4.44089209850063E-16,-4.44089209850063E-16,0.));
#462=CARTESIAN_POINT('',(-0.892503186268816,-4.44089209850063E-16,0.));
#463=CARTESIAN_POINT('',(-1.78500637253763,-4.44089209850063E-16,0.));
#464=CARTESIAN_POINT('',(-2.67750955880645,-4.44089209850063E-16,0.));
#465=CARTESIAN_POINT('',(-3.57001274507526,-4.44089209850063E-16,4.44089209850063E-16));
#466=CARTESIAN_POINT('',(-3.71369336668825,-4.44089209850063E-16,-0.146764420709215));
#467=CARTESIAN_POINT('',(-3.84917689122106,-4.44089209850063E-16,-0.301230768018443));
#468=CARTESIAN_POINT('',(-3.97599151461111,-4.44089209850063E-16,-0.462889943957597));
#469=CARTESIAN_POINT('',(-4.0937239377727,-4.44089209850063E-16,-0.631184307378255));
#470=CARTESIAN_POINT('',(-4.83642692723683,-4.44089209850063E-16,-1.69285214250747));
#471=CARTESIAN_POINT('',(-5.30075530450616,-4.44089209850063E-16,-3.14929879313675));
#472=CARTESIAN_POINT('',(-5.02952665187115,-4.44089209850063E-16,-4.65371652303951));
#473=CARTESIAN_POINT('',(-3.83248657315212,-4.44089209850063E-16,-6.95199421307814));
#474=CARTESIAN_POINT('',(-2.75524037586774,-4.44089209850063E-16,-8.03660396708754));
#475=CARTESIAN_POINT('',(-1.29566443288656,-4.44089209850063E-16,-8.49099999999999));
#476=CARTESIAN_POINT('',(-1.50034605096482E-15,-4.44089209850063E-16,-8.491));
#477=CARTESIAN_POINT('',(1.0842021724855E-16,-4.44089209850063E-16,-6.36825));
#478=CARTESIAN_POINT('',(1.0842021724855E-16,-4.44089209850063E-16,-4.2455));
#479=CARTESIAN_POINT('',(1.0842021724855E-16,-4.44089209850063E-16,-2.12275));
#480=CARTESIAN_POINT('',(1.0842021724855E-16,-4.44089209850063E-16,0.));
#481=CARTESIAN_POINT('',(0.,0.,0.));
#482=CARTESIAN_POINT('',(2.76463466041476E-14,0.,-8.495));
#483=CARTESIAN_POINT('',(0.,0.,0.));
#484=CARTESIAN_POINT('',(0.,0.,4.44089209850063E-16));
#485=CARTESIAN_POINT('',(-3.57001274507526,0.,4.44089209850063E-16));
#486=CARTESIAN_POINT('',(2.92705178359615E-14,-4.44089209850063E-16,-3.495));
#487=CARTESIAN_POINT('',(-3.57001274507526,-4.44089209850063E-16,2.22044604925031E-16));
#488=CARTESIAN_POINT('CRP',(-5.,0.,-110.));
#489=CARTESIAN_POINT('',(0.,0.,0.));
#490=CARTESIAN_POINT('',(0.,0.,0.));
#491=CARTESIAN_POINT('',(0.,0.,0.));
#492=CARTESIAN_POINT('',(-7.89272076515154E-16,-1.4210854715202E-14,-101.505));
#493=CARTESIAN_POINT('',(0.,0.,0.));
#494=MECHANICAL_DESIGN_GEOMETRIC_PRESENTATION_REPRESENTATION('',(#249,#250),
#498);
#495=MECHANICAL_DESIGN_GEOMETRIC_PRESENTATION_REPRESENTATION('',(#251,#252,
#253,#254,#255,#256,#257),#499);
#496=MECHANICAL_DESIGN_GEOMETRIC_PRESENTATION_REPRESENTATION('',(#258,#259,
#260,#261,#262,#263,#264,#265),#500);
#497=MECHANICAL_DESIGN_GEOMETRIC_PRESENTATION_REPRESENTATION('',(#266,#267,
#268),#501);
#498=(
GEOMETRIC_REPRESENTATION_CONTEXT(3)
GLOBAL_UNCERTAINTY_ASSIGNED_CONTEXT((#502))
GLOBAL_UNIT_ASSIGNED_CONTEXT((#511,#507,#506))
REPRESENTATION_CONTEXT('1590579285952','TOP_LEVEL_ASSEMBLY_PART')
);
#499=(
GEOMETRIC_REPRESENTATION_CONTEXT(3)
GLOBAL_UNCERTAINTY_ASSIGNED_CONTEXT((#503))
GLOBAL_UNIT_ASSIGNED_CONTEXT((#511,#507,#506))
REPRESENTATION_CONTEXT('202460753mod000_00','COMPONENT_PART')
);
#500=(
GEOMETRIC_REPRESENTATION_CONTEXT(3)
GLOBAL_UNCERTAINTY_ASSIGNED_CONTEXT((#504))
GLOBAL_UNIT_ASSIGNED_CONTEXT((#511,#507,#506))
REPRESENTATION_CONTEXT('202506381mod000_00','COMPONENT_PART')
);
#501=(
GEOMETRIC_REPRESENTATION_CONTEXT(3)
GLOBAL_UNCERTAINTY_ASSIGNED_CONTEXT((#505))
GLOBAL_UNIT_ASSIGNED_CONTEXT((#511,#507,#506))
REPRESENTATION_CONTEXT('203012662mod000_00','COMPONENT_PART')
);
#502=UNCERTAINTY_MEASURE_WITH_UNIT(LENGTH_MEASURE(2.E-5),#511,
'DISTANCE_ACCURACY_VALUE','Maximum Tolerance applied to model');
#503=UNCERTAINTY_MEASURE_WITH_UNIT(LENGTH_MEASURE(2.E-5),#511,
'DISTANCE_ACCURACY_VALUE','Maximum Tolerance applied to model');
#504=UNCERTAINTY_MEASURE_WITH_UNIT(LENGTH_MEASURE(2.E-5),#511,
'DISTANCE_ACCURACY_VALUE','Maximum Tolerance applied to model');
#505=UNCERTAINTY_MEASURE_WITH_UNIT(LENGTH_MEASURE(2.E-5),#511,
'DISTANCE_ACCURACY_VALUE','Maximum Tolerance applied to model');
#506=(
NAMED_UNIT(*)
SI_UNIT($,.STERADIAN.)
SOLID_ANGLE_UNIT()
);
#507=(
CONVERSION_BASED_UNIT('DEGREE',#509)
NAMED_UNIT(#508)
PLANE_ANGLE_UNIT()
);
#508=DIMENSIONAL_EXPONENTS(0.,0.,0.,0.,0.,0.,0.);
#509=PLANE_ANGLE_MEASURE_WITH_UNIT(PLANE_ANGLE_MEASURE(0.0174532925),#510);
#510=(
NAMED_UNIT(*)
PLANE_ANGLE_UNIT()
SI_UNIT($,.RADIAN.)
);
#511=(
LENGTH_UNIT()
NAMED_UNIT(*)
SI_UNIT(.MILLI.,.METRE.)
);
ENDSEC;
END-ISO-10303-21;
