ISO-10303-21;
HEADER;
/* Generated by software containing ST-Developer
 * from STEP Tools, Inc. (www.steptools.com) 
 */
/* OPTION: using custom schema-name function */

FILE_DESCRIPTION(
/* description */ (''),
/* implementation_level */ '2;1');

FILE_NAME(
/* name */ '1590648872820.stp',
/* time_stamp */ '2020-05-28T12:24:53+06:00',
/* author */ (''),
/* organization */ ('SMS'),
/* preprocessor_version */ 'ST-DEVELOPER v16.7',
/* originating_system */ 'SIEMENS PLM Software NX 12.0',
/* authorisation */ '');

FILE_SCHEMA (('AUTOMOTIVE_DESIGN { 1 0 10303 214 3 1 1 1 }'));
ENDSEC;

DATA;
#10=CONTEXT_DEPENDENT_SHAPE_REPRESENTATION(#16,#50);
#11=CONTEXT_DEPENDENT_SHAPE_REPRESENTATION(#17,#51);
#12=CONTEXT_DEPENDENT_SHAPE_REPRESENTATION(#18,#52);
#13=NEXT_ASSEMBLY_USAGE_OCCURRENCE('1001',' ',
'NXMOD-TM01_00-000-00-R216F_16A20C_100_PP_BAS',#56,#55,$);
#14=NEXT_ASSEMBLY_USAGE_OCCURRENCE('1002',' ',
'NXMOD-TM01_00-000-00-MI_R216F_1640_R1_BAS',#56,#54,$);
#15=NEXT_ASSEMBLY_USAGE_OCCURRENCE('1003',' ',
'NXMOD-TM01_00-000-00-R216F_16A20C_100_ACN_BAS',#56,#53,$);
#16=(
REPRESENTATION_RELATIONSHIP(' ',' ',#81,#82)
REPRESENTATION_RELATIONSHIP_WITH_TRANSFORMATION(#19)
SHAPE_REPRESENTATION_RELATIONSHIP()
);
#17=(
REPRESENTATION_RELATIONSHIP(' ',' ',#80,#82)
REPRESENTATION_RELATIONSHIP_WITH_TRANSFORMATION(#20)
SHAPE_REPRESENTATION_RELATIONSHIP()
);
#18=(
REPRESENTATION_RELATIONSHIP(' ',' ',#79,#82)
REPRESENTATION_RELATIONSHIP_WITH_TRANSFORMATION(#21)
SHAPE_REPRESENTATION_RELATIONSHIP()
);
#19=ITEM_DEFINED_TRANSFORMATION(' ',' ',#343,#382);
#20=ITEM_DEFINED_TRANSFORMATION(' ',' ',#343,#383);
#21=ITEM_DEFINED_TRANSFORMATION(' ',' ',#343,#384);
#22=ADVANCED_BREP_SHAPE_REPRESENTATION('202455403mod000_00-None',(#102),
#553);
#23=ADVANCED_BREP_SHAPE_REPRESENTATION('202458187mod000_00-None',(#101),
#552);
#24=CONSTRUCTIVE_GEOMETRY_REPRESENTATION_RELATIONSHIP(
'supplemental geometry','',#79,#28);
#25=CONSTRUCTIVE_GEOMETRY_REPRESENTATION_RELATIONSHIP(
'supplemental geometry','',#80,#29);
#26=CONSTRUCTIVE_GEOMETRY_REPRESENTATION_RELATIONSHIP(
'supplemental geometry','',#81,#30);
#27=CONSTRUCTIVE_GEOMETRY_REPRESENTATION_RELATIONSHIP(
'supplemental geometry','',#82,#31);
#28=CONSTRUCTIVE_GEOMETRY_REPRESENTATION('supplemental geometry',(#381),
#554);
#29=CONSTRUCTIVE_GEOMETRY_REPRESENTATION('supplemental geometry',(#375,
#376,#377),#553);
#30=CONSTRUCTIVE_GEOMETRY_REPRESENTATION('supplemental geometry',(#345,
#346,#347),#552);
#31=CONSTRUCTIVE_GEOMETRY_REPRESENTATION('supplemental geometry',(#344),
#551);
#32=SHAPE_REPRESENTATION_RELATIONSHIP('None',
'relationship between 202458185mod000_00-None and 202458185mod000_00-N
one',#79,#38);
#33=SHAPE_REPRESENTATION_RELATIONSHIP('None',
'relationship between 202455403mod000_00-None and 202455403mod000_00-N
one',#80,#22);
#34=SHAPE_REPRESENTATION_RELATIONSHIP('None',
'relationship between 202455403mod000_00-None and 202455403mod000_00-N
one',#80,#39);
#35=SHAPE_REPRESENTATION_RELATIONSHIP('None',
'relationship between 202458187mod000_00-None and 202458187mod000_00-N
one',#81,#23);
#36=SHAPE_REPRESENTATION_RELATIONSHIP('None',
'relationship between 202458187mod000_00-None and 202458187mod000_00-N
one',#81,#40);
#37=SHAPE_REPRESENTATION_RELATIONSHIP('None',
'relationship between 202458186mod000_00-None and 202458186mod000_00-N
one',#82,#41);
#38=GEOMETRICALLY_BOUNDED_WIREFRAME_SHAPE_REPRESENTATION(
'202458185mod000_00-None',(#83),#554);
#39=GEOMETRICALLY_BOUNDED_WIREFRAME_SHAPE_REPRESENTATION(
'202455403mod000_00-None',(#84),#553);
#40=GEOMETRICALLY_BOUNDED_WIREFRAME_SHAPE_REPRESENTATION(
'202458187mod000_00-None',(#85),#552);
#41=GEOMETRICALLY_BOUNDED_WIREFRAME_SHAPE_REPRESENTATION(
'202458186mod000_00-None',(#86),#551);
#42=SHAPE_DEFINITION_REPRESENTATION(#46,#79);
#43=SHAPE_DEFINITION_REPRESENTATION(#47,#80);
#44=SHAPE_DEFINITION_REPRESENTATION(#48,#81);
#45=SHAPE_DEFINITION_REPRESENTATION(#49,#82);
#46=PRODUCT_DEFINITION_SHAPE('','',#53);
#47=PRODUCT_DEFINITION_SHAPE('','',#54);
#48=PRODUCT_DEFINITION_SHAPE('','',#55);
#49=PRODUCT_DEFINITION_SHAPE('','',#56);
#50=PRODUCT_DEFINITION_SHAPE(' ','NAUO PRDDFN',#13);
#51=PRODUCT_DEFINITION_SHAPE(' ','NAUO PRDDFN',#14);
#52=PRODUCT_DEFINITION_SHAPE(' ','NAUO PRDDFN',#15);
#53=PRODUCT_DEFINITION(' ','',#61,#57);
#54=PRODUCT_DEFINITION(' ','',#62,#58);
#55=PRODUCT_DEFINITION(' ','',#63,#59);
#56=PRODUCT_DEFINITION(' ','',#64,#60);
#57=PRODUCT_DEFINITION_CONTEXT('part definition',#78,'design');
#58=PRODUCT_DEFINITION_CONTEXT('part definition',#78,'design');
#59=PRODUCT_DEFINITION_CONTEXT('part definition',#78,'design');
#60=PRODUCT_DEFINITION_CONTEXT('part definition',#78,'design');
#61=PRODUCT_DEFINITION_FORMATION_WITH_SPECIFIED_SOURCE(' ',' ',#69,
 .NOT_KNOWN.);
#62=PRODUCT_DEFINITION_FORMATION_WITH_SPECIFIED_SOURCE(' ',' ',#70,
 .NOT_KNOWN.);
#63=PRODUCT_DEFINITION_FORMATION_WITH_SPECIFIED_SOURCE(' ',' ',#71,
 .NOT_KNOWN.);
#64=PRODUCT_DEFINITION_FORMATION_WITH_SPECIFIED_SOURCE(' ',' ',#72,
 .NOT_KNOWN.);
#65=PRODUCT_RELATED_PRODUCT_CATEGORY('part','',(#69));
#66=PRODUCT_RELATED_PRODUCT_CATEGORY('part','',(#70));
#67=PRODUCT_RELATED_PRODUCT_CATEGORY('part','',(#71));
#68=PRODUCT_RELATED_PRODUCT_CATEGORY('part','',(#72));
#69=PRODUCT('ASSEMBLY_CONSTRUCTION','202458185mod000_00',' ',(#73));
#70=PRODUCT('202455403mod000_00','202455403mod000_00','MASTER_INSERT',(#74));
#71=PRODUCT('202458187mod000_00','202458187mod000_00','NOCUT',(#75));
#72=PRODUCT('202458186mod000_00','202458186mod000_00',' ',(#76));
#73=PRODUCT_CONTEXT(' ',#78,'mechanical');
#74=PRODUCT_CONTEXT(' ',#78,'mechanical');
#75=PRODUCT_CONTEXT(' ',#78,'mechanical');
#76=PRODUCT_CONTEXT(' ',#78,'mechanical');
#77=APPLICATION_PROTOCOL_DEFINITION('international standard',
'automotive_design',2010,#78);
#78=APPLICATION_CONTEXT(
'core data for automotive mechanical design processes');
#79=SHAPE_REPRESENTATION('202458185mod000_00-None',(#343),#554);
#80=SHAPE_REPRESENTATION('202455403mod000_00-None',(#343),#553);
#81=SHAPE_REPRESENTATION('202458187mod000_00-None',(#343),#552);
#82=SHAPE_REPRESENTATION('202458186mod000_00-None',(#343,#382,#383,#384),
#551);
#83=GEOMETRIC_CURVE_SET('None',(#541,#542));
#84=GEOMETRIC_CURVE_SET('None',(#518,#519,#520,#89));
#85=GEOMETRIC_CURVE_SET('None',(#472,#473,#474));
#86=GEOMETRIC_CURVE_SET('None',(#470));
#87=DRAUGHTING_PRE_DEFINED_COLOUR('blue');
#88=DRAUGHTING_PRE_DEFINED_COLOUR('white');
#89=TRIMMED_CURVE('CUTTING EDGE LINE',#90,(PARAMETER_VALUE(0.)),(
PARAMETER_VALUE(1.)),.T.,.PARAMETER.);
#90=(
BOUNDED_CURVE()
B_SPLINE_CURVE(3,(#521,#522,#523,#524,#525,#526,#527,#528,#529,#530,#531,
#532,#533),.UNSPECIFIED.,.T.,.F.)
B_SPLINE_CURVE_WITH_KNOTS((4,3,3,3,4),(0.,0.194219722092848,0.242497131983538,
0.663741751199388,1.),.UNSPECIFIED.)
CURVE()
GEOMETRIC_REPRESENTATION_ITEM()
RATIONAL_B_SPLINE_CURVE((1.,1.,1.,1.,0.996140396069082,0.996140396069082,
1.,0.726869726099239,0.726869726099239,1.,1.,1.,1.))
REPRESENTATION_ITEM('CUTTING EDGE LINE')
);
#91=SURFACE_STYLE_USAGE(.BOTH.,#93);
#92=SURFACE_STYLE_USAGE(.BOTH.,#94);
#93=SURFACE_SIDE_STYLE('',(#95));
#94=SURFACE_SIDE_STYLE('',(#96));
#95=SURFACE_STYLE_FILL_AREA(#97);
#96=SURFACE_STYLE_FILL_AREA(#98);
#97=FILL_AREA_STYLE('',(#99));
#98=FILL_AREA_STYLE('',(#100));
#99=FILL_AREA_STYLE_COLOUR('',#341);
#100=FILL_AREA_STYLE_COLOUR('',#342);
#101=MANIFOLD_SOLID_BREP('NOCUT',#103);
#102=MANIFOLD_SOLID_BREP('CUT',#104);
#103=CLOSED_SHELL('',(#119,#120,#121,#122,#123,#124,#125,#126,#127,#128,
#129,#130,#131,#132));
#104=CLOSED_SHELL('',(#133,#134));
#105=TOROIDAL_SURFACE('',#374,9.48163997000955,1.);
#106=CONICAL_SURFACE('',#360,7.1125,20.0000000000001);
#107=CONICAL_SURFACE('',#365,8.33044919243112,30.);
#108=CONICAL_SURFACE('',#369,7.175,1.06166826191728);
#109=CYLINDRICAL_SURFACE('',#358,7.2625);
#110=CYLINDRICAL_SURFACE('',#361,7.1125);
#111=CYLINDRICAL_SURFACE('',#367,7.175);
#112=CYLINDRICAL_SURFACE('',#373,10.0625);
#113=FACE_OUTER_BOUND('',#171,.T.);
#114=FACE_OUTER_BOUND('',#178,.T.);
#115=FACE_OUTER_BOUND('',#191,.T.);
#116=FACE_OUTER_BOUND('',#192,.T.);
#117=SPHERICAL_SURFACE('',#355,7.0625);
#118=SPHERICAL_SURFACE('',#379,7.99599999999274);
#119=ADVANCED_FACE('',(#141,#142),#135,.F.);
#120=ADVANCED_FACE('',(#143,#144),#136,.F.);
#121=ADVANCED_FACE('',(#145,#146),#117,.T.);
#122=ADVANCED_FACE('',(#113),#137,.T.);
#123=ADVANCED_FACE('',(#147,#148),#109,.T.);
#124=ADVANCED_FACE('',(#149,#150),#106,.T.);
#125=ADVANCED_FACE('',(#151,#152),#110,.T.);
#126=ADVANCED_FACE('',(#114),#138,.T.);
#127=ADVANCED_FACE('',(#153,#154),#107,.T.);
#128=ADVANCED_FACE('',(#155,#156),#111,.T.);
#129=ADVANCED_FACE('',(#157,#158),#108,.T.);
#130=ADVANCED_FACE('',(#159,#160),#139,.F.);
#131=ADVANCED_FACE('',(#161,#162),#112,.T.);
#132=ADVANCED_FACE('',(#163,#164),#105,.F.);
#133=ADVANCED_FACE('',(#115),#118,.T.);
#134=ADVANCED_FACE('',(#116),#140,.T.);
#135=PLANE('',#350);
#136=PLANE('',#353);
#137=PLANE('',#356);
#138=PLANE('',#363);
#139=PLANE('',#372);
#140=PLANE('',#380);
#141=FACE_BOUND('',#165,.T.);
#142=FACE_BOUND('',#166,.T.);
#143=FACE_BOUND('',#167,.T.);
#144=FACE_BOUND('',#168,.T.);
#145=FACE_BOUND('',#169,.T.);
#146=FACE_BOUND('',#170,.T.);
#147=FACE_BOUND('',#172,.T.);
#148=FACE_BOUND('',#173,.T.);
#149=FACE_BOUND('',#174,.T.);
#150=FACE_BOUND('',#175,.T.);
#151=FACE_BOUND('',#176,.T.);
#152=FACE_BOUND('',#177,.T.);
#153=FACE_BOUND('',#179,.T.);
#154=FACE_BOUND('',#180,.T.);
#155=FACE_BOUND('',#181,.T.);
#156=FACE_BOUND('',#182,.T.);
#157=FACE_BOUND('',#183,.T.);
#158=FACE_BOUND('',#184,.T.);
#159=FACE_BOUND('',#185,.T.);
#160=FACE_BOUND('',#186,.T.);
#161=FACE_BOUND('',#187,.T.);
#162=FACE_BOUND('',#188,.T.);
#163=FACE_BOUND('',#189,.T.);
#164=FACE_BOUND('',#190,.T.);
#165=EDGE_LOOP('',(#193));
#166=EDGE_LOOP('',(#194));
#167=EDGE_LOOP('',(#195));
#168=EDGE_LOOP('',(#196));
#169=EDGE_LOOP('',(#197));
#170=EDGE_LOOP('',(#198));
#171=EDGE_LOOP('',(#199));
#172=EDGE_LOOP('',(#200));
#173=EDGE_LOOP('',(#201));
#174=EDGE_LOOP('',(#202));
#175=EDGE_LOOP('',(#203));
#176=EDGE_LOOP('',(#204));
#177=EDGE_LOOP('',(#205));
#178=EDGE_LOOP('',(#206));
#179=EDGE_LOOP('',(#207));
#180=EDGE_LOOP('',(#208));
#181=EDGE_LOOP('',(#209));
#182=EDGE_LOOP('',(#210));
#183=EDGE_LOOP('',(#211));
#184=EDGE_LOOP('',(#212));
#185=EDGE_LOOP('',(#213));
#186=EDGE_LOOP('',(#214));
#187=EDGE_LOOP('',(#215));
#188=EDGE_LOOP('',(#216));
#189=EDGE_LOOP('',(#217));
#190=EDGE_LOOP('',(#218));
#191=EDGE_LOOP('',(#219));
#192=EDGE_LOOP('',(#220));
#193=ORIENTED_EDGE('',*,*,#235,.F.);
#194=ORIENTED_EDGE('',*,*,#236,.F.);
#195=ORIENTED_EDGE('',*,*,#237,.T.);
#196=ORIENTED_EDGE('',*,*,#238,.F.);
#197=ORIENTED_EDGE('',*,*,#239,.T.);
#198=ORIENTED_EDGE('',*,*,#237,.F.);
#199=ORIENTED_EDGE('',*,*,#239,.F.);
#200=ORIENTED_EDGE('',*,*,#235,.T.);
#201=ORIENTED_EDGE('',*,*,#240,.T.);
#202=ORIENTED_EDGE('',*,*,#240,.F.);
#203=ORIENTED_EDGE('',*,*,#241,.T.);
#204=ORIENTED_EDGE('',*,*,#238,.T.);
#205=ORIENTED_EDGE('',*,*,#241,.F.);
#206=ORIENTED_EDGE('',*,*,#242,.T.);
#207=ORIENTED_EDGE('',*,*,#243,.T.);
#208=ORIENTED_EDGE('',*,*,#242,.F.);
#209=ORIENTED_EDGE('',*,*,#244,.F.);
#210=ORIENTED_EDGE('',*,*,#236,.T.);
#211=ORIENTED_EDGE('',*,*,#245,.T.);
#212=ORIENTED_EDGE('',*,*,#244,.T.);
#213=ORIENTED_EDGE('',*,*,#246,.T.);
#214=ORIENTED_EDGE('',*,*,#247,.F.);
#215=ORIENTED_EDGE('',*,*,#243,.F.);
#216=ORIENTED_EDGE('',*,*,#247,.T.);
#217=ORIENTED_EDGE('',*,*,#245,.F.);
#218=ORIENTED_EDGE('',*,*,#246,.F.);
#219=ORIENTED_EDGE('',*,*,#248,.T.);
#220=ORIENTED_EDGE('',*,*,#248,.F.);
#221=VERTEX_POINT('',#479);
#222=VERTEX_POINT('',#481);
#223=VERTEX_POINT('',#484);
#224=VERTEX_POINT('',#486);
#225=VERTEX_POINT('',#489);
#226=VERTEX_POINT('',#493);
#227=VERTEX_POINT('',#496);
#228=VERTEX_POINT('',#500);
#229=VERTEX_POINT('',#503);
#230=VERTEX_POINT('',#506);
#231=VERTEX_POINT('',#509);
#232=VERTEX_POINT('',#512);
#233=VERTEX_POINT('',#514);
#234=VERTEX_POINT('',#538);
#235=EDGE_CURVE('',#221,#221,#249,.T.);
#236=EDGE_CURVE('',#222,#222,#250,.T.);
#237=EDGE_CURVE('',#223,#223,#251,.T.);
#238=EDGE_CURVE('',#224,#224,#252,.T.);
#239=EDGE_CURVE('',#225,#225,#253,.T.);
#240=EDGE_CURVE('',#226,#226,#254,.T.);
#241=EDGE_CURVE('',#227,#227,#255,.T.);
#242=EDGE_CURVE('',#228,#228,#256,.T.);
#243=EDGE_CURVE('',#229,#229,#257,.T.);
#244=EDGE_CURVE('',#230,#230,#258,.T.);
#245=EDGE_CURVE('',#231,#231,#259,.T.);
#246=EDGE_CURVE('',#232,#232,#260,.T.);
#247=EDGE_CURVE('',#233,#233,#261,.T.);
#248=EDGE_CURVE('',#234,#234,#262,.T.);
#249=CIRCLE('',#348,7.2625);
#250=CIRCLE('',#349,7.175);
#251=CIRCLE('',#351,7.0625);
#252=CIRCLE('',#352,7.1125);
#253=CIRCLE('',#354,4.43045214961182);
#254=CIRCLE('',#357,7.2625);
#255=CIRCLE('',#359,7.1125);
#256=CIRCLE('',#362,8.33044919243112);
#257=CIRCLE('',#364,10.0625);
#258=CIRCLE('',#366,7.175);
#259=CIRCLE('',#368,8.48181163826053);
#260=CIRCLE('',#370,9.48163997000955);
#261=CIRCLE('',#371,10.0625);
#262=CIRCLE('',#378,6.92618190275133);
#263=CURVE_STYLE('',#272,POSITIVE_LENGTH_MEASURE(0.18),#340);
#264=CURVE_STYLE('',#273,POSITIVE_LENGTH_MEASURE(0.18),#340);
#265=CURVE_STYLE('',#274,POSITIVE_LENGTH_MEASURE(0.18),#340);
#266=CURVE_STYLE('',#275,POSITIVE_LENGTH_MEASURE(0.18),#340);
#267=CURVE_STYLE('',#276,POSITIVE_LENGTH_MEASURE(0.18),#87);
#268=CURVE_STYLE('',#277,POSITIVE_LENGTH_MEASURE(0.18),#340);
#269=CURVE_STYLE('',#278,POSITIVE_LENGTH_MEASURE(0.18),#340);
#270=CURVE_STYLE('',#279,POSITIVE_LENGTH_MEASURE(0.18),#340);
#271=CURVE_STYLE('',#280,POSITIVE_LENGTH_MEASURE(0.18),#340);
#272=DRAUGHTING_PRE_DEFINED_CURVE_FONT('continuous');
#273=DRAUGHTING_PRE_DEFINED_CURVE_FONT('continuous');
#274=DRAUGHTING_PRE_DEFINED_CURVE_FONT('continuous');
#275=DRAUGHTING_PRE_DEFINED_CURVE_FONT('continuous');
#276=DRAUGHTING_PRE_DEFINED_CURVE_FONT('continuous');
#277=DRAUGHTING_PRE_DEFINED_CURVE_FONT('continuous');
#278=DRAUGHTING_PRE_DEFINED_CURVE_FONT('continuous');
#279=DRAUGHTING_PRE_DEFINED_CURVE_FONT('continuous');
#280=DRAUGHTING_PRE_DEFINED_CURVE_FONT('continuous');
#281=PRESENTATION_LAYER_ASSIGNMENT('1','Layer 1',(#470,#344,#472,#473,#474,
#345,#346,#347,#101,#518,#519,#520,#89,#375,#376,#377,#102,#541,#542,#381));
#282=STYLED_ITEM('',(#302),#470);
#283=STYLED_ITEM('',(#303),#344);
#284=STYLED_ITEM('',(#304),#472);
#285=STYLED_ITEM('',(#305),#473);
#286=STYLED_ITEM('',(#306),#474);
#287=STYLED_ITEM('',(#307),#345);
#288=STYLED_ITEM('',(#308),#346);
#289=STYLED_ITEM('',(#309),#347);
#290=STYLED_ITEM('',(#310),#101);
#291=STYLED_ITEM('',(#311),#518);
#292=STYLED_ITEM('',(#312),#519);
#293=STYLED_ITEM('',(#313),#520);
#294=STYLED_ITEM('',(#314),#89);
#295=STYLED_ITEM('',(#315),#375);
#296=STYLED_ITEM('',(#316),#376);
#297=STYLED_ITEM('',(#317),#377);
#298=STYLED_ITEM('',(#318),#102);
#299=STYLED_ITEM('',(#319),#541);
#300=STYLED_ITEM('',(#320),#542);
#301=STYLED_ITEM('',(#321),#381);
#302=PRESENTATION_STYLE_ASSIGNMENT((#322));
#303=PRESENTATION_STYLE_ASSIGNMENT((#263));
#304=PRESENTATION_STYLE_ASSIGNMENT((#323));
#305=PRESENTATION_STYLE_ASSIGNMENT((#324));
#306=PRESENTATION_STYLE_ASSIGNMENT((#325));
#307=PRESENTATION_STYLE_ASSIGNMENT((#264));
#308=PRESENTATION_STYLE_ASSIGNMENT((#265));
#309=PRESENTATION_STYLE_ASSIGNMENT((#266));
#310=PRESENTATION_STYLE_ASSIGNMENT((#91));
#311=PRESENTATION_STYLE_ASSIGNMENT((#326));
#312=PRESENTATION_STYLE_ASSIGNMENT((#327));
#313=PRESENTATION_STYLE_ASSIGNMENT((#328));
#314=PRESENTATION_STYLE_ASSIGNMENT((#267));
#315=PRESENTATION_STYLE_ASSIGNMENT((#268));
#316=PRESENTATION_STYLE_ASSIGNMENT((#269));
#317=PRESENTATION_STYLE_ASSIGNMENT((#270));
#318=PRESENTATION_STYLE_ASSIGNMENT((#92));
#319=PRESENTATION_STYLE_ASSIGNMENT((#329));
#320=PRESENTATION_STYLE_ASSIGNMENT((#330));
#321=PRESENTATION_STYLE_ASSIGNMENT((#271));
#322=POINT_STYLE('',#331,POSITIVE_LENGTH_MEASURE(3.),#340);
#323=POINT_STYLE('',#332,POSITIVE_LENGTH_MEASURE(3.),#340);
#324=POINT_STYLE('',#333,POSITIVE_LENGTH_MEASURE(3.),#340);
#325=POINT_STYLE('',#334,POSITIVE_LENGTH_MEASURE(3.),#340);
#326=POINT_STYLE('',#335,POSITIVE_LENGTH_MEASURE(3.),#340);
#327=POINT_STYLE('',#336,POSITIVE_LENGTH_MEASURE(3.),#340);
#328=POINT_STYLE('',#337,POSITIVE_LENGTH_MEASURE(3.),#340);
#329=POINT_STYLE('',#338,POSITIVE_LENGTH_MEASURE(3.),#340);
#330=POINT_STYLE('',#339,POSITIVE_LENGTH_MEASURE(3.),#88);
#331=PRE_DEFINED_POINT_MARKER_SYMBOL('plus');
#332=PRE_DEFINED_POINT_MARKER_SYMBOL('plus');
#333=PRE_DEFINED_POINT_MARKER_SYMBOL('plus');
#334=PRE_DEFINED_POINT_MARKER_SYMBOL('plus');
#335=PRE_DEFINED_POINT_MARKER_SYMBOL('plus');
#336=PRE_DEFINED_POINT_MARKER_SYMBOL('plus');
#337=PRE_DEFINED_POINT_MARKER_SYMBOL('plus');
#338=PRE_DEFINED_POINT_MARKER_SYMBOL('plus');
#339=PRE_DEFINED_POINT_MARKER_SYMBOL('plus');
#340=COLOUR_RGB('Medium Maroon',0.6,0.4,0.4);
#341=COLOUR_RGB('Medium Gray',0.490196078431373,0.490196078431373,0.490196078431373);
#342=COLOUR_RGB('Light Gray',0.8,0.8,0.8);
#343=AXIS2_PLACEMENT_3D('',#469,#385,#386);
#344=AXIS2_PLACEMENT_3D('',#471,#387,#388);
#345=AXIS2_PLACEMENT_3D('CSW',#475,#389,#390);
#346=AXIS2_PLACEMENT_3D('PCS',#476,#391,#392);
#347=AXIS2_PLACEMENT_3D('MCS',#477,#393,#394);
#348=AXIS2_PLACEMENT_3D('',#478,#395,#396);
#349=AXIS2_PLACEMENT_3D('',#480,#397,#398);
#350=AXIS2_PLACEMENT_3D('',#482,#399,#400);
#351=AXIS2_PLACEMENT_3D('',#483,#401,#402);
#352=AXIS2_PLACEMENT_3D('',#485,#403,#404);
#353=AXIS2_PLACEMENT_3D('',#487,#405,#406);
#354=AXIS2_PLACEMENT_3D('',#488,#407,#408);
#355=AXIS2_PLACEMENT_3D('',#490,#409,#410);
#356=AXIS2_PLACEMENT_3D('',#491,#411,#412);
#357=AXIS2_PLACEMENT_3D('',#492,#413,#414);
#358=AXIS2_PLACEMENT_3D('',#494,#415,#416);
#359=AXIS2_PLACEMENT_3D('',#495,#417,#418);
#360=AXIS2_PLACEMENT_3D('',#497,#419,#420);
#361=AXIS2_PLACEMENT_3D('',#498,#421,#422);
#362=AXIS2_PLACEMENT_3D('',#499,#423,#424);
#363=AXIS2_PLACEMENT_3D('',#501,#425,#426);
#364=AXIS2_PLACEMENT_3D('',#502,#427,#428);
#365=AXIS2_PLACEMENT_3D('',#504,#429,#430);
#366=AXIS2_PLACEMENT_3D('',#505,#431,#432);
#367=AXIS2_PLACEMENT_3D('',#507,#433,#434);
#368=AXIS2_PLACEMENT_3D('',#508,#435,#436);
#369=AXIS2_PLACEMENT_3D('',#510,#437,#438);
#370=AXIS2_PLACEMENT_3D('',#511,#439,#440);
#371=AXIS2_PLACEMENT_3D('',#513,#441,#442);
#372=AXIS2_PLACEMENT_3D('',#515,#443,#444);
#373=AXIS2_PLACEMENT_3D('',#516,#445,#446);
#374=AXIS2_PLACEMENT_3D('',#517,#447,#448);
#375=AXIS2_PLACEMENT_3D('CIP',#534,#449,#450);
#376=AXIS2_PLACEMENT_3D('MCS',#535,#451,#452);
#377=AXIS2_PLACEMENT_3D('PCS',#536,#453,#454);
#378=AXIS2_PLACEMENT_3D('',#537,#455,#456);
#379=AXIS2_PLACEMENT_3D('',#539,#457,#458);
#380=AXIS2_PLACEMENT_3D('',#540,#459,#460);
#381=AXIS2_PLACEMENT_3D('',#543,#461,#462);
#382=AXIS2_PLACEMENT_3D('',#544,#463,#464);
#383=AXIS2_PLACEMENT_3D('',#545,#465,#466);
#384=AXIS2_PLACEMENT_3D('',#546,#467,#468);
#385=DIRECTION('',(0.,0.,1.));
#386=DIRECTION('',(1.,0.,0.));
#387=DIRECTION('',(0.,0.,1.));
#388=DIRECTION('',(1.,0.,0.));
#389=DIRECTION('',(0.,0.,1.));
#390=DIRECTION('',(1.,0.,0.));
#391=DIRECTION('',(0.,0.,1.));
#392=DIRECTION('',(1.,0.,0.));
#393=DIRECTION('',(0.,0.,1.));
#394=DIRECTION('',(1.,0.,0.));
#395=DIRECTION('',(0.,0.,-1.));
#396=DIRECTION('',(-1.,0.,0.));
#397=DIRECTION('',(0.,0.,1.));
#398=DIRECTION('',(-1.,0.,0.));
#399=DIRECTION('',(0.,0.,-1.));
#400=DIRECTION('',(-1.,0.,0.));
#401=DIRECTION('',(0.,0.,1.));
#402=DIRECTION('',(-1.,0.,0.));
#403=DIRECTION('',(0.,0.,1.));
#404=DIRECTION('',(-1.,0.,0.));
#405=DIRECTION('',(0.,0.,1.));
#406=DIRECTION('',(1.,0.,0.));
#407=DIRECTION('',(0.,0.,1.));
#408=DIRECTION('',(-1.,0.,0.));
#409=DIRECTION('',(0.,6.12323399573677E-17,-1.));
#410=DIRECTION('',(0.,1.,0.));
#411=DIRECTION('',(0.,0.,-1.));
#412=DIRECTION('',(-1.,0.,0.));
#413=DIRECTION('',(0.,0.,1.));
#414=DIRECTION('',(-1.,0.,0.));
#415=DIRECTION('',(0.,0.,-1.));
#416=DIRECTION('',(-1.,0.,0.));
#417=DIRECTION('',(0.,0.,1.));
#418=DIRECTION('',(-1.,0.,0.));
#419=DIRECTION('',(0.,0.,1.));
#420=DIRECTION('',(1.,0.,-1.49592384946252E-16));
#421=DIRECTION('',(0.,0.,-1.));
#422=DIRECTION('',(-1.,0.,0.));
#423=DIRECTION('',(0.,0.,1.));
#424=DIRECTION('',(-1.,0.,0.));
#425=DIRECTION('',(0.,0.,1.));
#426=DIRECTION('',(-1.,0.,0.));
#427=DIRECTION('',(0.,0.,1.));
#428=DIRECTION('',(-1.,0.,0.));
#429=DIRECTION('',(0.,0.,-1.));
#430=DIRECTION('',(1.,0.,0.));
#431=DIRECTION('',(0.,0.,1.));
#432=DIRECTION('',(-1.,0.,0.));
#433=DIRECTION('',(0.,0.,1.));
#434=DIRECTION('',(-1.,0.,0.));
#435=DIRECTION('',(0.,0.,-1.));
#436=DIRECTION('',(-1.,0.,0.));
#437=DIRECTION('',(0.,0.,1.));
#438=DIRECTION('',(-1.,0.,-1.07970084414301E-15));
#439=DIRECTION('',(0.,0.,1.));
#440=DIRECTION('',(-1.,0.,0.));
#441=DIRECTION('',(0.,0.,1.));
#442=DIRECTION('',(-1.,0.,0.));
#443=DIRECTION('',(0.,0.,1.));
#444=DIRECTION('',(-1.,0.,0.));
#445=DIRECTION('',(0.,0.,1.));
#446=DIRECTION('',(-1.,0.,0.));
#447=DIRECTION('',(0.,0.,1.));
#448=DIRECTION('',(-1.,0.,0.));
#449=DIRECTION('',(0.,0.,1.));
#450=DIRECTION('',(1.,0.,0.));
#451=DIRECTION('',(0.,0.,1.));
#452=DIRECTION('',(1.,0.,0.));
#453=DIRECTION('',(0.,0.,1.));
#454=DIRECTION('',(1.,0.,0.));
#455=DIRECTION('',(0.,0.,-1.));
#456=DIRECTION('',(-1.,0.,0.));
#457=DIRECTION('',(-6.12323399573677E-17,0.,-1.));
#458=DIRECTION('',(-1.,5.91327350820474E-17,0.));
#459=DIRECTION('',(0.,0.,1.));
#460=DIRECTION('',(1.,0.,0.));
#461=DIRECTION('',(0.,0.,1.));
#462=DIRECTION('',(1.,0.,0.));
#463=DIRECTION('',(0.,0.,1.));
#464=DIRECTION('',(1.,0.,0.));
#465=DIRECTION('',(0.,0.,1.));
#466=DIRECTION('',(1.,0.,0.));
#467=DIRECTION('',(0.,0.,1.));
#468=DIRECTION('',(1.,0.,0.));
#469=CARTESIAN_POINT('',(0.,0.,0.));
#470=CARTESIAN_POINT('',(0.,0.,0.));
#471=CARTESIAN_POINT('',(0.,0.,0.));
#472=CARTESIAN_POINT('CSW',(-1.34852386796264E-13,0.,-154.007901034846));
#473=CARTESIAN_POINT('PCS',(-1.41957814153865E-13,-1.91172984762325E-14,
0.));
#474=CARTESIAN_POINT('MCS',(0.,0.,-50.));
#475=CARTESIAN_POINT('',(-1.34852386796264E-13,0.,-154.007901034846));
#476=CARTESIAN_POINT('',(-1.41957814153865E-13,-1.91172984762325E-14,0.));
#477=CARTESIAN_POINT('',(0.,0.,-50.));
#478=CARTESIAN_POINT('',(-1.61075112630097E-13,0.,-137.763401034846));
#479=CARTESIAN_POINT('',(-7.26250000000016,0.,-137.763401034846));
#480=CARTESIAN_POINT('',(-1.61075112630097E-13,0.,-137.763401034846));
#481=CARTESIAN_POINT('',(-7.17500000000016,0.,-137.763401034846));
#482=CARTESIAN_POINT('',(-1.61075112630097E-13,7.02350269189626,-137.763401034846));
#483=CARTESIAN_POINT('',(-1.61075112630097E-13,0.,-158.003401034846));
#484=CARTESIAN_POINT('',(-7.06250000000016,0.,-158.003401034846));
#485=CARTESIAN_POINT('',(-1.61075112630097E-13,0.,-158.003401034846));
#486=CARTESIAN_POINT('',(-7.11250000000016,0.,-158.003401034846));
#487=CARTESIAN_POINT('',(-1.61075112630097E-13,7.1125,-158.003401034846));
#488=CARTESIAN_POINT('',(-1.61075112630097E-13,0.,-163.503401034846));
#489=CARTESIAN_POINT('',(-4.43045214961198,0.,-163.503401034846));
#490=CARTESIAN_POINT('',(-1.61075112630097E-13,8.88178419700125E-16,-158.003401034846));
#491=CARTESIAN_POINT('',(-1.61075112630097E-13,-4.62223186652937E-33,-163.503401034846));
#492=CARTESIAN_POINT('',(-1.61075112630097E-13,0.,-138.703905550955));
#493=CARTESIAN_POINT('',(-7.26250000000016,0.,-138.703905550955));
#494=CARTESIAN_POINT('',(-1.61075112630097E-13,0.,-146.503401034846));
#495=CARTESIAN_POINT('',(-1.61075112630097E-13,0.,-139.116027163873));
#496=CARTESIAN_POINT('',(-7.11250000000017,0.,-139.116027163873));
#497=CARTESIAN_POINT('',(-1.61075112630097E-13,0.,-139.116027163873));
#498=CARTESIAN_POINT('',(-1.61075112630097E-13,0.,-146.503401034846));
#499=CARTESIAN_POINT('',(-1.61075112630097E-13,0.,0.));
#500=CARTESIAN_POINT('',(-8.33044919243128,0.,0.));
#501=CARTESIAN_POINT('',(-1.61075112630097E-13,0.,0.));
#502=CARTESIAN_POINT('',(-1.61075112630097E-13,0.,-3.));
#503=CARTESIAN_POINT('',(-10.0625000000002,0.,-3.));
#504=CARTESIAN_POINT('',(-1.61075112630097E-13,0.,0.));
#505=CARTESIAN_POINT('',(-1.61075112630097E-13,0.,-137.499));
#506=CARTESIAN_POINT('',(-7.17500000000016,0.,-137.499));
#507=CARTESIAN_POINT('',(-1.61075112630097E-13,0.,-21.2731847555534));
#508=CARTESIAN_POINT('',(-1.61075112630097E-13,0.,-66.9814714535928));
#509=CARTESIAN_POINT('',(-8.48181163826069,0.,-66.9814714535928));
#510=CARTESIAN_POINT('',(-1.61075112630097E-13,0.,-137.499));
#511=CARTESIAN_POINT('',(-1.61075112630097E-13,0.,-66.));
#512=CARTESIAN_POINT('',(-9.48163997000971,0.,-66.));
#513=CARTESIAN_POINT('',(-1.61075112630097E-13,0.,-66.));
#514=CARTESIAN_POINT('',(-10.0625000000002,0.,-66.));
#515=CARTESIAN_POINT('',(-1.61075112630097E-13,-8.5,-66.));
#516=CARTESIAN_POINT('',(-1.61075112630097E-13,0.,-21.2731847555534));
#517=CARTESIAN_POINT('',(-1.61075112630097E-13,0.,-67.));
#518=CARTESIAN_POINT('',(0.,0.,-11.9955));
#519=CARTESIAN_POINT('',(0.,0.,0.));
#520=CARTESIAN_POINT('',(0.,0.,0.));
#521=CARTESIAN_POINT('',(0.,4.44089209850063E-16,1.33226762955019E-15));
#522=CARTESIAN_POINT('',(-2.30872730091711,4.44089209850063E-16,1.33226762955019E-15));
#523=CARTESIAN_POINT('',(-4.61745460183422,4.44089209850063E-16,1.33226762955019E-15));
#524=CARTESIAN_POINT('',(-6.92618190275133,4.44089209850063E-16,2.22044604925031E-15));
#525=CARTESIAN_POINT('',(-7.2134992399493,4.44089209850063E-16,-0.498063356587987));
#526=CARTESIAN_POINT('',(-7.44563675470237,4.44089209850063E-16,-1.02411519212751));
#527=CARTESIAN_POINT('',(-7.61990657042318,7.94133999890943E-16,-1.57206445144055));
#528=CARTESIAN_POINT('',(-9.41403835352665,4.39789338142519E-15,-7.21327763339791));
#529=CARTESIAN_POINT('',(-5.91964483894062,1.14417878993182E-15,-11.9915));
#530=CARTESIAN_POINT('',(2.44806895149556E-16,7.94133999890943E-16,-11.9915));
#531=CARTESIAN_POINT('',(0.,4.44089209850063E-16,-7.99433333333333));
#532=CARTESIAN_POINT('',(0.,4.44089209850063E-16,-3.99716666666667));
#533=CARTESIAN_POINT('',(0.,4.44089209850063E-16,1.77635683940025E-15));
#534=CARTESIAN_POINT('',(0.,0.,-11.9955));
#535=CARTESIAN_POINT('',(0.,0.,0.));
#536=CARTESIAN_POINT('',(0.,0.,0.));
#537=CARTESIAN_POINT('',(0.,0.,2.22044604925031E-15));
#538=CARTESIAN_POINT('',(-6.92618190275133,0.,2.22044604925031E-15));
#539=CARTESIAN_POINT('',(9.14559089545482E-15,-1.15871088149025E-15,-3.99550000002084));
#540=CARTESIAN_POINT('',(-6.92618190275133,4.44089209850063E-16,1.77635683940025E-15));
#541=CARTESIAN_POINT('',(0.,0.,0.));
#542=CARTESIAN_POINT('CRP',(-7.996,0.,-165.999));
#543=CARTESIAN_POINT('',(0.,0.,0.));
#544=CARTESIAN_POINT('',(0.,0.,0.));
#545=CARTESIAN_POINT('',(7.10542735760101E-15,2.8421709430404E-14,-154.007901034846));
#546=CARTESIAN_POINT('',(0.,0.,0.));
#547=MECHANICAL_DESIGN_GEOMETRIC_PRESENTATION_REPRESENTATION('',(#282,#283),
#551);
#548=MECHANICAL_DESIGN_GEOMETRIC_PRESENTATION_REPRESENTATION('',(#284,#285,
#286,#287,#288,#289,#290),#552);
#549=MECHANICAL_DESIGN_GEOMETRIC_PRESENTATION_REPRESENTATION('',(#291,#292,
#293,#294,#295,#296,#297,#298),#553);
#550=MECHANICAL_DESIGN_GEOMETRIC_PRESENTATION_REPRESENTATION('',(#299,#300,
#301),#554);
#551=(
GEOMETRIC_REPRESENTATION_CONTEXT(3)
GLOBAL_UNCERTAINTY_ASSIGNED_CONTEXT((#555))
GLOBAL_UNIT_ASSIGNED_CONTEXT((#564,#560,#559))
REPRESENTATION_CONTEXT('1590648872820','TOP_LEVEL_ASSEMBLY_PART')
);
#552=(
GEOMETRIC_REPRESENTATION_CONTEXT(3)
GLOBAL_UNCERTAINTY_ASSIGNED_CONTEXT((#556))
GLOBAL_UNIT_ASSIGNED_CONTEXT((#564,#560,#559))
REPRESENTATION_CONTEXT('202458187mod000_00','COMPONENT_PART')
);
#553=(
GEOMETRIC_REPRESENTATION_CONTEXT(3)
GLOBAL_UNCERTAINTY_ASSIGNED_CONTEXT((#557))
GLOBAL_UNIT_ASSIGNED_CONTEXT((#564,#560,#559))
REPRESENTATION_CONTEXT('202455403mod000_00','COMPONENT_PART')
);
#554=(
GEOMETRIC_REPRESENTATION_CONTEXT(3)
GLOBAL_UNCERTAINTY_ASSIGNED_CONTEXT((#558))
GLOBAL_UNIT_ASSIGNED_CONTEXT((#564,#560,#559))
REPRESENTATION_CONTEXT('202458185mod000_00','COMPONENT_PART')
);
#555=UNCERTAINTY_MEASURE_WITH_UNIT(LENGTH_MEASURE(2.E-5),#564,
'DISTANCE_ACCURACY_VALUE','Maximum Tolerance applied to model');
#556=UNCERTAINTY_MEASURE_WITH_UNIT(LENGTH_MEASURE(2.E-5),#564,
'DISTANCE_ACCURACY_VALUE','Maximum Tolerance applied to model');
#557=UNCERTAINTY_MEASURE_WITH_UNIT(LENGTH_MEASURE(2.E-5),#564,
'DISTANCE_ACCURACY_VALUE','Maximum Tolerance applied to model');
#558=UNCERTAINTY_MEASURE_WITH_UNIT(LENGTH_MEASURE(2.E-5),#564,
'DISTANCE_ACCURACY_VALUE','Maximum Tolerance applied to model');
#559=(
NAMED_UNIT(*)
SI_UNIT($,.STERADIAN.)
SOLID_ANGLE_UNIT()
);
#560=(
CONVERSION_BASED_UNIT('DEGREE',#562)
NAMED_UNIT(#561)
PLANE_ANGLE_UNIT()
);
#561=DIMENSIONAL_EXPONENTS(0.,0.,0.,0.,0.,0.,0.);
#562=PLANE_ANGLE_MEASURE_WITH_UNIT(PLANE_ANGLE_MEASURE(0.0174532925),#563);
#563=(
NAMED_UNIT(*)
PLANE_ANGLE_UNIT()
SI_UNIT($,.RADIAN.)
);
#564=(
LENGTH_UNIT()
NAMED_UNIT(*)
SI_UNIT(.MILLI.,.METRE.)
);
ENDSEC;
END-ISO-10303-21;
